Song name
# A B C D E F G H I J K L M N O P Q R S T U V W X Y Z

Alice In Chains - Alone tab

Help us improve GuitareTab! Take a short survey!
e------------------------------------------------------------------------|
b------------------------------------------------------------------------|
g---------------------------------------------------5---7b9r7---7b9r7--5-|
d--7b9--9r7---7---7---7b9r7--5----2--5----------2------------------------|
a--------------------------------------5pm--5pm--------------------------|
E------------------------------------------------------------------------|

-------------------------------------------------------------------------|
-------------------------------------------------------------------------|
--------------------------2----2b--2------2------------------------------|
------7b9---7--5---2---5-------------5--------5---2--2b-------2----------|
--------------------------------------------------------5---5---5---2----|
-----------------------------------------------------------------------5-|

-------------------------------------------------------------------------|
-------------------------------------------------------------------------|
-------------------------------------------------------------------------|
-------------------------------------------------------------------------|
-------------------------------------------------------------------------|
--5----5s3--3--3s2----2----2s3-------------------------------------------|
Related for Alone tab