Song name
# A B C D E F G H I J K L M N O P Q R S T U V W X Y Z

Alice In Chains - Take Me Home tab

-------------------------------------------------------------------------------
			     SONG NAME - Band Name
-------------------------------------------------------------------------------
Tabbed by:jb9
Email:jb9_ca@hotmail.com

This is track number 5 from the SAP EP,untitled but I just call it Take me 
song,I'm pretty sure this is how it goes.I've also transcribed the lyrics.Please e-mail me if their 
any  discrepancy.
Tuning:Down half step


e|--------2------|---------2------|---------0------|-------------|
B|--3-------3----|--3--------3----|---3-------3----|3\2-----2----|
G|----2-------2--|----2--------2--|-----0-------0--|----2-----2--|   (x7)
D|0-----0-------0|------0--------0|-------0-------0|------2-----2|
A|---------------|----------------|----------------|-------------|
E|---------------|2---------------|3---------------|-------------|


 Play this,minus the D once,then back to beginning 8 times.Then back to this             
    with the d.

e|--------3------|--------3------|-----------------------|2-----------|
B|--3-------3----|--3-------3----|3\2-----2-----2---2----|3-----------|
G|----0-------0--|----0-------0--|----2-----2-----2---2--|2-----------|
D|------0-------0|------0-------0|------2-----2---------2|0-----------|
A|---------------|---------------|-----------------------|------------|
E|3--------------|3--------------|-----------------------|------------|

  A             Asus A            D/F#         Dsus/F# D/F#

e|0-0-0-0-0-0-0-0-0-0-|----0-0-0-|2-2-2-2-2-2-2-0-0-2-|----2-2-2-|
B|2-2-2-2-2-2-2-0-0-2-|----2-2-2-|3-3-3-3-3-3-3-3-3-3-|----3-3-3-|
G|2-2-2-2-2-2-2-2-2-2-|----2-2-2-|2-2-2-2-2-2-2-2-2-2-|----2-2-2-|(x12)
D|2-2-2-2-2-2-2-2-2-2-|----2-2-2-|0-0-0-0-0-0-0-0-2-2-|----0-0-0-|
A|0-0-0-0-0-0-0-0-0-2-|----0-0-0-|0-0-0-0-0-0-0-0-0-0-|----0-0-0-|
E|--------------------|----------|2-2-2-2-2-2-2-2-2-2-|----2-2-2-|

e|--------0---------------------|--------3---------------3---------------------2---|
B|--3-------3-----3\2-----2-----|--3-------3-------3-------3-----3\2-----2-----3---|
G|----0-------0-------2-----2---|----0-------0-------0-------0-------2-----2---2---|
D|------0-------0-------2-----2-|------0-------0-------0-------0-------2-----2-0---|
A|------------------------------|--------------------------------------------------|
E|3-----------------------------|3---------------3---------------------------------|
Tap to rate this tab
 
# A B C D E F G H I J K L M N O P Q R S T U V W X Y Z