Song name
# A B C D E F G H I J K L M N O P Q R S T U V W X Y Z

Alice In Chains - Last Of My Kind tab

This is the third song off of thier new album 'Black Gives Way to Blue' its a half
step down with a drop D (Db).


intro
Eb-------------------------------------------------------------------|
Bb-------------------------------------------------------------------|
Gb-------------------------------------------------------------------|
Db-------------------------------------------------------------------|
Ab-----4---4s5---5s7---7---5---4--------4---4s5---5s7---7---5---4----|
Db-2s4---4-----5-----7---5---5---4--2s4---4-----5-----7---5---4---4--|

Eb-------------------------------------------------------------------|
Bb-------------------------------------------------------------------|
Gb-------------------------------------------------------------------|
Db-------------------------------------------------------------------|
Ab-----4---4s5---5s7---7---5---4--------4---4s5---5s7---7---8---4----|
Db-2s4---4-----5-----7---5---5---4--2s4---4-----5-----7---8---4------|

verse(2x)
Eb-------------------------------------------------------------------|
Bb-------------------------------------------------------------------|
Gb-------------------------------------------------------------------|
Db-------------------------------------------------------------------|
Ab-----4---4s5---5s7---7---5---4--------4---4s5---5s7---7---5---4----|
Db-2s4---4-----5-----7---5---5---4--2s4---4-----5-----7---5---4---4--|

Eb-------------------------------------------------------------------|
Bb-------------------------------------------------------------------|
Gb-------------------------------------------------------------------|
Db-------------------------------------------------------------------|
Ab-----4---4s5---5s7---7---5---4--------4---4s5---5s7---7---8---4----|
Db-2s4---4-----5-----7---5---5---4--2s4---4-----5-----7---8---4------|

pre-chorus(4x)
Eb-----------------------------|
Bb-----------------------------|
Gb-----------------------------|
Db-5-7----7----7----7---7-8-5--|
Ab-5-7----7----7----7---7-8-5--|
Db-5h7-77-7-77-7-77-7-7-7-8-5--|
     pm   pm   pm  pm

Chorus(2x)
Eb---------------------------------|
Bb---------------------------------|
Gb---------------------------------|
Db-4------4------4------4---8765---|
Ab-2------2------2------2---8765---|
Db--222222-222222-222222-22s8765---|
-----------------------------------|  [-pm-] [-pm-] [-pm-] pm


intro
Eb-------------------------------------------------------------------|
Bb-------------------------------------------------------------------|
Gb-------------------------------------------------------------------|
Db-------------------------------------------------------------------|
Ab-----4---4s5---5s7---7---5---4--------4---4s5---5s7---7---5---4----|
Db-2s4---4-----5-----7---5---5---4--2s4---4-----5-----7---5---4---4--|

Eb-------------------------------------------------------------------|
Bb-------------------------------------------------------------------|
Gb-------------------------------------------------------------------|
Db-------------------------------------------------------------------|
Ab-----4---4s5---5s7---7---5---4--------4---4s5---5s7---7---8---4----|
Db-2s4---4-----5-----7---5---5---4--2s4---4-----5-----7---8---4------|

verse(2x)
Eb-------------------------------------------------------------------|
Bb-------------------------------------------------------------------|
Gb-------------------------------------------------------------------|
Db-------------------------------------------------------------------|
Ab-----4---4s5---5s7---7---5---4--------4---4s5---5s7---7---5---4----|
Db-2s4---4-----5-----7---5---5---4--2s4---4-----5-----7---5---4---4--|

Eb-------------------------------------------------------------------|
Bb-------------------------------------------------------------------|
Gb-------------------------------------------------------------------|
Db-------------------------------------------------------------------|
Ab-----4---4s5---5s7---7---5---4--------4---4s5---5s7---7---8---4----|
Db-2s4---4-----5-----7---5---5---4--2s4---4-----5-----7---8---4------|

pre-chorus(4x)
Eb-----------------------------|
Bb-----------------------------|
Gb-----------------------------|
Db-5-7----7----7----7---7-8-5--|
Ab-5-7----7----7----7---7-8-5--|
Db-5h7-77-7-77-7-77-7-7-7-8-5--|
     pm   pm   pm  pm

Chorus(4x)
Eb---------------------------------|
Bb---------------------------------|
Gb---------------------------------|
Db-4------4------4------4---8765---|
Ab-2------2------2------2---8765---|
Db--222222-222222-222222-22s8765---|
-----------------------------------|  [-pm-] [-pm-] [-pm-] pm


bridge(4x[the solo is played behind thins riff which comes in half way through])
Eb-----------------------------------------------------------------|
Gb-----------------------------------------------------------------|
Bb-----------------------------------------------------------------|
Db-2-0-2-3-2---0----5-3-2-0-2-3-2--2-0-2-3-2---0----7-3-2-0-2-3-2--|
Ab-2-0-2-3-2---0----5-3-2-0-2-3-2--2-0-2-3-2---0----7-3-2-0-2-3-2--|
Db-2-0-2h3-2---0(2)s5-3-2-0-2h3-2--2-0-2h3-2---0(2)s7-3-2-0-2h3-2--|


intro
Eb-------------------------------------------------------------------|
Bb-------------------------------------------------------------------|
Gb-------------------------------------------------------------------|
Db-------------------------------------------------------------------|
Ab-----4---4s5---5s7---7---5---4--------4---4s5---5s7---7---5---4----|
Db-2s4---4-----5-----7---5---5---4--2s4---4-----5-----7---5---4---4--|

Eb-------------------------------------------------------------------|
Bb-------------------------------------------------------------------|
Gb-------------------------------------------------------------------|
Db-------------------------------------------------------------------|
Ab-----4---4s5---5s7---7---5---4--------4---4s5---5s7---7---8---4----|
Db-2s4---4-----5-----7---5---5---4--2s4---4-----5-----7---8---4------|


Chorus(2x)
Eb---------------------------------|
Bb---------------------------------|
Gb---------------------------------|
Db-4------4------4------4---8765---|
Ab-2------2------2------2---8765---|
Db--222222-222222-222222-22s8765---|
-----------------------------------|  [-pm-] [-pm-] [-pm-] pm

outro(Palm muted)
Db-----------------------------------|
Bb-----------------------------------|
Gb-----------------------------------|
Db--2-2-2-2-2-2-2-2-2-2-2-2-2-2-2-2--|
Ab--2-2-2-2-2-2-2-2-2-2-2-2-2-2-2-2--|
Db--2-2-2-2-2-2-2-2-2-2-2-2-2-2-2-2--|

there is also a lead that is played during the outro, but i havnt figured it out yet.
Tap to rate this tab
 
# A B C D E F G H I J K L M N O P Q R S T U V W X Y Z