Song name
# A B C D E F G H I J K L M N O P Q R S T U V W X Y Z

Alice In Chains - Your Decision tab

Great new song off AIC's new album Black and Blue

Tuned One Half Step Down

Intro/Verse/Chorus (Listen to song for strumming)

--0----3----2----0--------------------------------------|
--0----0----3----x--------------------------------------|
--x----0----2----2--------------------------------------|
--2----0----0----2--------------------------------------|
--2----2---------0--------------------------------------|
--0----3------------------------------------------------|

1st Lead Part
--------------------------------------------------------|
--------------------------------------------------------|
--------------------------------------------------------|
--9p7--12--9--7/5/14------------------------------------|
--------------------------------------------------------|
--------------------------------------------------------|

2nd Lead Part
--------------------------------------------------------|
----12--------------------------------------------------|
-12----12-14-14b16r14-----------------------------------|
-----------------------14-------------------------------|
--------------------------------------------------------|
--------------------------------------------------------|


Bridge 1 (x2)
------------3----8--------------------------------------|
--7----10---3----8--------------------------------------|
--7----10---4----9--------------------------------------|
--7----10---5----10-------------------------------------|
--5----8----5----10-------------------------------------|
------------3----8--------------------------------------|
"you feed the fire that burned us all..."

Bridge 2
--------------------------------------------------------------------------|
---------------------------------------------5----------------5-----------|
--12---14---9---7--------------------------5---5---5--------5---5---------|
--12---14---9---7--repeat--then----------5-------5--------5-------5-------|
--10---12---7---5----------------------3----------------3-----------3-----|
-------------------------------------3----------------3---------------5---|
"no one plans to take..."       "its over"


Solo (guitar 1 plays verse chords)
-------------------------------------------------------------|
------------------12----------12---------------------10------|
-12-9-12-9-12/14------14-12-14----14/9---9h12p9--9h12--------|
-------------------------------------------------------------|
-------------------------------------------------------------|
-------------------------------------------------------------|


-------------------------------------------------------------|
--------10-----------------------------12-----------12-------|
-9-12p9----9h12p9-----12-9-12-9-12/14-----14-12-14-----14/9--|
-------------------------------------------------------------|
-------------------------------------------------------------|
-------------------------------------------------------------|

-------------------15--------------15-17b19r17p15------------|
----------15-17-12-15-17--17p15h17----------------17~~-------|
-12h14/16----------------------------------------------------|
-------------------------------------------------------------|
-------------------------------------------------------------|
-------------------------------------------------------------|

Finish With:

Bridge 1 (x2)
Intro/Verse/Chorus
Bridge 2 (x2)
Tap to rate this tab
# A B C D E F G H I J K L M N O P Q R S T U V W X Y Z