Song name
# A B C D E F G H I J K L M N O P Q R S T U V W X Y Z

Alice In Chains - All Secrets Known tab

Intro
Repeat this section 3x then move on to the following below...
Eb--------------------------------------------------|
Bb--------------------------------------------------|
Gb--------------------------------------------------|
Db---4-5---4-5---4-5---4-5---5-7---5-7---5-7---5-7--|
Ab-5-----5-----5-----5-----5-----5-----5-----5------|
Db--------------------------------------------------|
   . . . . . . . . . . . . . . . . . . . . . . . .
                    Palm Muted

Guitar 1
Eb------------------------------------------------------|
Bb------------------------------------------------------|
Gb----------------------------4-5----4-5----4-5----4-5--|
Db---7-8---7-8---7-8---7-8------------------------------|
Ab-5-----5-----5-----5------5------5------5------5------|
Db------------------------------------------------------|
   . . . . . . . . . . . . . . . . . . . . . . . . . .
                    Palm Muted
Guitar 2
Eb------------------------------------------------------|
Bb-6-6-6-6-6-6-6-6-6-6-6-6--8-8-8-8-8-8-8-8-8-8-8-8-----|
Gb-5-5-5-5-5-5-5-5-5-5-5-5--7-7-7-7-7-7-7-7-7-7-7-7-----|
Db-3-3-3-3-3-3-3-3-3-3-3-3--5-5-5-5-5-5-5-5-5-5-5-5-----|
Ab-3-3-3-3-3-3-3-3-3-3-3-3--5-5-5-5-5-5-5-5-5-5-5-5-----|
Db-3-3-3-3-3-3-3-3-3-3-3-3--5-5-5-5-5-5-5-5-5-5-5-5-----|


Verse (4x)
Eb--------------------------------------------------|
Bb--------------------------------------------------|
Gb--------------------------------------------------|
Db---4-5---4-5---4-5---4-5---5-7---5-7---5-7---5-7--|
Ab-5-----5-----5-----5-----5-----5-----5-----5------|
Db--------------------------------------------------|
   . . . . . . . . . . . . . . . . . . . . . . . .
                    Palm Muted
Hope,
a new beginning
time,
time to start living
like just before we...

Chorus
                  Chords
    D           D#       F        G
Eb-------------------------------------|
Bb--3-----------4--------6--------8----|
Gb--2-----------3--------5--------7----|
Db--0-----------1--------3--------5----|
Ab--0-----------1--------3--------5----|
Db--0-----------1--------3--------5----|
   D         D#
   Died...
D                   D#
   There's no going back
          D       D#
   to the place...
D             D#
   We started from

Verse (4x)
Eb--------------------------------------------------|
Bb--------------------------------------------------|
Gb--------------------------------------------------|
Db---4-5---4-5---4-5---4-5---5-7---5-7---5-7---5-7--|
Ab-5-----5-----5-----5-----5-----5-----5-----5------|
Db--------------------------------------------------|
   . . . . . . . . . . . . . . . . . . . . . . . .
                    Palm Muted
Hurt,
fallin through fingers
Trust,
trust in the feeling
There's something left...

Chorus
   D         D#
   inside...
D                   D#
   There's no going back
          D       D#
   to the place...
D             D#
   We started from
D             D#
AAAAaaahhhhhhhAAAAHHHHH
F              G
   All secrets known

Bridge
repeat this section 3x
Eb--------------------------------------------------------------|
Bb-------------------------------------------8------------------|
Gb-------------------------------------------7------------------|
Db-7----7----7----7-----------------7---7----5------------------|
Ab-7----7----7----7------------8-7--7---7----5-----------5-7-8--|
Db-7----7----7----7----/7-9-10------7---7----5---/7-9-10--------|

Eb------------------------------------------------|
Bb-------------------------------------------8----|
Gb-------------------------------------------7----|
Db-7----7----7----7-----------------7---7----5----|
Ab-7----7----7----7------------8-7--7---7----5----|
Db-7----7----7----7----/7-9-10------7---7----5----|
                                              ring

Solo
this section is played twice before the solo
Eb--------------------------------------------------|
Bb--------------------------------------------------|
Gb--------------------------------------------------|
Db---4-5---4-5---4-5---4-5---5-7---5-7---5-7---5-7--|
Ab-5-----5-----5-----5-----5-----5-----5-----5------|
Db--------------------------------------------------|
   . . . . . . . . . . . . . . . . . . . . . . . .
                    Palm Muted

Eb--12/18-17-15-14-15p14-15p14-15/17~--15-17^18-18v17-------------------------------16---------|
Bb---------------------------------------------------16-15/13--13-15-15~-----15^16----16v15p13~|
Gb---------------------------------------------------------------------------------------------|
Db---------------------------------------------------------------------------------------------|
Ab---------------------------------------------------------------------------------------------|
Db---------------------------------------------------------------------------------------------|


Verse (4x)
Eb--------------------------------------------------|
Bb--------------------------------------------------|
Gb--------------------------------------------------|
Db---4-5---4-5---4-5---4-5---5-7---5-7---5-7---5-7--|
Ab-5-----5-----5-----5-----5-----5-----5-----5------|
Db--------------------------------------------------|
   . . . . . . . . . . . . . . . . . . . . . . . .
                    Palm Muted
Calm,
all wounds are healing
Strong,
truth is worth saving
I want to feel..

   D       D#
   Alive...
D                   D#
   There's no going back
          D       D#
   to the place...
D             D#
   We started from
D             D#
AAAAaaahhhhhhhAAAAHHHHH
F              G
   All secrets known
D(fades out)
Tap to rate this tab
# A B C D E F G H I J K L M N O P Q R S T U V W X Y Z