Song name
# A B C D E F G H I J K L M N O P Q R S T U V W X Y Z

Alice In Chains - Black Gives Way To Blue tab

----------------------------------------------------------------------------
			     Black Gives Way to Blue -Alice in Chains
-------------------------------------------------------------------------------
Tabbed by: Brohj
Tuning: standard

Heard the song and thought i need to play that, so here is what i got from a live performance.
   this should be pretty close, if not spot on. have fun with it. good song.

e|-----------------------------------------------------------------------------|
B|------3-3-------2-2------1-1--------4-4--------------------------------------|
G|------6-6-------3-2------1-1--------0-0--------------------------------------|
D|---6--6-6----3--3-3---1--1-1-----5--5-5--------------------------------------|
A|--4-4-----4-1-1-----1---------0/6-6-----6 repete-----------------------------|
E|---------------------4-4-----------------------------------------------------|

    the fourth chord changes to this at some point
e|-----------------------------------------------------------------------------|
B|-----------------------------------------------------------------------------|
G|----------9--9---------------------------------------------------------------|
D|----------10-10--------------------------------------------------------------|
A|-----10---10-10--------------------------------------------------------------|
E|----8--8---------------------------------------------------------------------|
Tap to rate this tab
# A B C D E F G H I J K L M N O P Q R S T U V W X Y Z