Song name
# A B C D E F G H I J K L M N O P Q R S T U V W X Y Z

Alice In Chains - Died tab

-------------------------------------------------------------------------------
			     Died - Alice In Chains
-------------------------------------------------------------------------------
Tabbed by: Alex Harper
Email: magicdonky117@hotmail.com

Tuning: Db Ab Db Gb Bb eb (Drop D and down half a step

(Intro and Main Riff. Palm Mute [|-PM-|] on open Db) 
eb|-------------------------------------------------------------|------|
Bb|-------------------------------------------------------------|------|
Gb|---12-10---10/7-7--------------7/5---------------------------|------|
Db|---12-10---10/7-7--------------7/5---------6-5-5---5-5-5-0---|------|
Ab|---10--8----8/5-5---------5~---5/3------5~-6-5-5---3-3-5-0---|----3~|
Db|-0-------0--------0-0-5h7----0-----0-5h7---6-5-5-0-3-3-5-0-0-|3h5---|
                                                                
(Second part of the main riff, replaces the last section. you have to listen)
eb|--------|
Bb|--------|
Gb|--------|
Db|-5h6-5h6|
Ab|-5h6-5h6|
Db|-5h6-5h6|

(Pre-Chorus: Lead)
eb|-5~-8-7~-5-4-|-5~--8-7-4~-|
Bb|--------------------------|
Gb|--------------------------|
Db|--------------------------|
Ab|--------------------------|
Db|--------------------------|

(Pre-Chorus: Rhythm)
eb|------------------------------|
Bb|------------------------------|
Gb|------------------------------|
Db|-3-3-3-3-3-6~-2-2-2-2-2-2-2-2-|
Ab|-3-3-3-3-3-6~-2-2-2-2-2-2-2-2-|
Db|-3-3-3-3-3-6~-2-2-2-2-2-2-2-2-|
    |-pm-----------------------|

(Chorus: Lead)
eb|--------5~----------------5^~|
Bb|-6^-4-3----3-3/4-4-6^-4-3----|
Gb|-----------------------------|
Db|-----------------------------|
Ab|-----------------------------|
Db|-----------------------------|

(Second part of Chorus. Towards End. Listen)
eb|-5---6---3~-|
Bb|---3---3----|
Gb|------------|
Db|------------|
Ab|------------|
Db|------------|

(Chorus: Rhythm)
eb|-----------------------------|
Bb|-----------------------------|
Gb|-----------------------------|
Db|-1-1-1-1-1-----0-0-0-0-0-0-0-|
Ab|-1-1-1-1-1---1-0-0-0-0-0-0-0-|
Db|-1-1-1-1-1-3---0-0-0-0-0-0-0-|
    |-pm----|     |-pm--------|

(2nd part of Chorus Rhythm. I alternate between both)
eb|-----------------------------|
Bb|-----------------------------|
Gb|-----------------------------|
Db|-1-1-1-1-1-----0-0-3-3-3-3-3-|
Ab|-1-1-1-1-1---1-0-0-3-3-3-3-3-|
Db|-1-1-1-1-1-3---0-0-3-3-3-3-3-|
    |-pm----|     |-pm--------|


************************************

| /   slide up
| \   slide down
| h   hammer-on
| p   pull-off
| ~   vibrato
| +   harmonic
| x   Mute note
| b   Bend
| pb  Pre-bend
| br  Bend release
| pbr Pre-bend release
| brb Bend release bend

************************************
Tap to rate this tab
# A B C D E F G H I J K L M N O P Q R S T U V W X Y Z