Song name
# A B C D E F G H I J K L M N O P Q R S T U V W X Y Z

Alice In Chains - Black Gives Way To Blue tab

---------------------------------------------------------------------------
Black Gives Way to Blue -Alice in Chains-
---------------------------------------------------------------------------
Tabbed by: Wasito93@yahoo.com
Tuning: Half-Step lower/ Eb Ab Db Gb Bb Eb

Okay. This is the COMPLETE and ACCURATE tab on how Jerry Cantrell plays live. Most tabs 
been chords which is what DUVALL plays. This is the live version of Jerry playing this 
song. Took my 3 hours to tab, ENJOY!!!

eb|----------------------------------------------------------------|
Bb|----------------------------------------------------------------|
Gb|-----6-----6---------------9--------------6-----6---------------|
Db|-------------2/------6----------6---------------------4---------|
Ab|--0-----0---------7-----7----7-----7/--5-----5-----5-----5------|
Db|----------------------------------------------------------------|


eb|---------------------------|
Bb|---------------------------|
Gb|----6----------------------|
Db|--------------4------------|
Ab|-2-----2---2-----2---------|
Db|---------------------------|   RIFF A


eb|----------------------------------------------------------------|
Bb|----------------------------------------------------------------|
Gb|-----6-----6-----------6---------------------6------------------|
Db|--------------2-------------4----4-----------------6---6--------|
Ab|--0-----0-----------5----5----5-----5-----5-----5----5---5------|
Db|----------------------------------------------------------------|

eb|----------------------------------|
Bb|----------------------------------|
Gb|------6------6--------------------|
Db|-------------------4--------------|
Ab|---2-----2------2-----2-----------|
Db|----------------------------------|  RIFF B

Throughout the song
Intro-Riff A  x4
Riff B        x2
Riff A        x2
Riff B        x2
Riff A        x3
Riff B        x1
Riff A        x1
Riff B        x1

End Riff


eb|------------------x-----------|
Bb|------------------6-----------|
Gb|------6-----6-----6-----------|
Db|------------------4-----------|
Ab|---5----5---------5-----------|
Db|------------------0-----------|
Tap to rate this tab
# A B C D E F G H I J K L M N O P Q R S T U V W X Y Z