Song name
# A B C D E F G H I J K L M N O P Q R S T U V W X Y Z

Alice In Chains - Shame In You tab

While looking, i found out that there were only two guys who actually tried to tab 
it out. here's my version.

Opening:

e|------------------------------|
b|------------------------------|
g|-2b4b2---2b4b2---2b4b2---2b4b2|
d|------------------------0-----|
a|3-----3-2-----2-1-------------|      
e|----------------------3-------|

Chords for that fill between the verse and the chorus

e|------------------------------------|
b|------------------------------------|
g|7-7-7-7-7---------------------------|
d|7-7-7-7-7-4-4-4-4-3-3-3-3-7-7-7-7-7-|
a|5-5-5-5-5-4-4-4-4-3-3-3-3-7-7-7-7-7-|
e|5-5-5-5-5-2-2-2-2-1-1-1-1-5-5-5-5-5-|

Sorry, I haven't figured out the solo fills yet

The fill chords you can also use for the chorus

Here are the break chords towards the end

e|------------------------------------|
b|------------------------------------|
g|7-7-7-7-7-5-5-5-5-5-----------------|
d|7-7-7-7-7-5-5-5-5-5-5-5-5-5-5-------|
a|5-5-5-5-5-3-3-3-3-3-5-5-5-5-5-------|
e|5-5-5-5-5-3-3-3-3-3-3-3-3-3-3-------|

This is the first part of the ending

e|------------------------------------|
b|------------------------------------|
g|------4------------------4-------0--|
d|5-4-0--0-4-5-5-4-0-5-4-0---0-4-5-5--|
a|------------------------------------|
e|------------------------------------|


The last bit at the end

e|------------------------------------|
b|------------------------------------|
g|10-10-10-9-9-9-4-5-5-5--------------|
d|-----------------------5-5-5-3-3----|
a|-------------------------------0----|
e|------------------------------------|
Tap to rate this tab
# A B C D E F G H I J K L M N O P Q R S T U V W X Y Z