Song name
# A B C D E F G H I J K L M N O P Q R S T U V W X Y Z

Alice In Chains - No Excuses tab

“No Excuses” By Alice in Chains
Tune down 1/2 step-Eb Ab Db Gb Bb Eb
This is my first tab and I could not find any that were exactly right for this song so I 
it a try which means that there might be mistakes. Derek G
----------------------------------------------------------------------------
Intro:
E:-------------------------------|
B:-------------------------------|
G:-6/8-8-8-8--8-8--8-8--6-6------| x4
D:-7/9-9-9-9--9-9--9-9--7-7------|
A:-7/9-9-9-9--9-9--9-9--7-7------|
E:-5/7-7-7-7--7-7--7-7--5-5------|
(Get the timing down yourself)
Verse:
E:-------------------------------|
B:-------------------------------|
G:-6/8-8-8-8--8-8--8-8--6-6------| x8
D:-7/9-9-9-9--9-9--9-9--7-7------|
A:-7/9-9-9-9--9-9--9-9--7-7------|
E:-5/7-7-7-7--7-7--7-7--5-5------|
Chorus: 1st and 2nd
E:---------------------------------------------------------------------------|
B:-------------7-----------------------------------7--------7h8p7p5----------|
G:---4---4-----------4----7b(9)(7)p4-----4---4----------4-----------7--------|b(9)(7)
D:-7---7---7~------7---7---------------7---7---7~-----7---7------------------|
A:---------------------------------------------------------------------------|
E:---------------------------------------------------------------------------|

e:-------------------------|--------------------------------|
B:-------------7-----------|--------------------------------|
G:---4---4--------7b(9)(7)-|-7b(9)~----5h7p5h7p5h7p5~-------|
D:-7---7---7~--------------|--------------------------------|
A:-------------------------|--------------------------------|
E:-------------------------|--------------------------------|
			    |  1st Time
E:-------------------|
B:-------------------|
G:-------------------|
D:-7b(9)~------------|
A:-------------------|
E:-------------------|
   2nd time
Guitar Solo:
E:--12p10----10---------------------------|
B:--------12----12~-----------------------|
G:--------------------9b(11)---9--7~------|
D:----------------------------------------|
A:----------------------------------------|
E:----------------------------------------|

E:-----12p10-----10----------------------------------------------------|
B:-----------12-----12~--7b(9)~------------12----------12--------------|
G:-----------------------7b(9)~------9/11------9b(11)------9b(11)--7---|
D:---------------------------------------------------------------------|
A:---------------------------------------------------------------------|
E:---------------------------------------------------------------------|


E:----------------------------------------------7-7-7----|
B:--10-----------------------9b(10)~--7h9p7~-------------|
G:--9----9b(11)--9-7---------9b(11)~--7h9p7~-------------|
D:-------------------9-9~--------------------------------|
A:-------------------------------------------------------|
E:-------------------------------------------------------|
Chorus: 3rd time
E:--------------------------------------------------|
B:-------------------19-----------------------------|
G:-----16----16-------------16-----18b(19)(18)p16---|
D:--19----19----19~------19----19-------------------|
A:--------------------------------------------------|
E:--------------------------------------------------|

E:-----------------------------------------------------------|
B:-------------------19------------19h20p19p17---------------|
G:-----16----16-------------16-----------------19b(21)(19)---|
D:--19----19----19~------19----19----------------------------|
A:-----------------------------------------------------------|
E:-----------------------------------------------------------|

E:-------------------------------------------------------------------|
B:-------------------19----------------------------------------------|
G:-----16----16----------19b(21)(19)---------------------------------|
D:--19----19----19~------------------19b(21)~---7h9p7----------------|
A:----------------------------------------------------9-7-5-7b(9)~---|
E:-------------------------------------------------------------------|
Outro:
E:-------------------------------|
B:-------------------------------|
G:-6/8-8-8-8--8-8--8-8--6-6------| x5
D:-7/9-9-9-9--9-9--9-9--7-7------|
A:-7/9-9-9-9--9-9--9-9--7-7------|
E:-5/7-7-7-7--7-7--7-7--5-5------|
On sixth end with:
E:--------------|
B:--------------|
G:-6/8-8~-------|
D:-7/9-9~-------|
A:-7/9-9~-------|
E:-5/7-7~-------|
Tap to rate this tab
 
# A B C D E F G H I J K L M N O P Q R S T U V W X Y Z