Alice In Chains - Lesson Learned tab

Great song from alice in chains, figured out easy way to play rytm sounding great.
Mail me to Slither_2006@hotmail.com any corrections or suggestions.Cheers \m/

Tuning: half step down 1/2
 



INTRO & VERSE
|-------------------------------------------------------------------------| 
|-------------------------------------------------------------------------|
|-------------------------------------------------------------------------|
|-5--5--7--7--8--8--2--2--2-2-2-------------------------------------------|
|-5--5--7--7--8--8--2--2--2-2-2-------------------------------------------|
|-3--3--5--5--6--6--0--0--0-0-0-------------------------------------------|

PRE CHORUS
|-------------------------------------------------------------------------| 
|-------------------------------------------------------------------------|
|-------------------------7------------------7-----------------7----------|
|-5--5--7--7--8--8--x--5--7--x--7---8--x--5--7--x--7--8--x--5--7--x--7----|
|-5--5--7--7--8--8--x--5--5--x--7---8--x--5--5--x--7--8--x--5--5--x--7----|
|-3--3--5--5--6--6--x--3-----x--5---6--x--3-----x--5--6--x--3-----x--5----|

CHORUS

|--------------------------------------------------------------------------| 
|--------------------------------------------------------------------------|
|--------------4--4--4--4-4-4--5--5--5-5-5---------------------------------|
|-2--2--2-2-2  4--4--4--4-4-4--5--5--5-5-5---7--7--7--2-2-7-7-2-2----------|
|-2--2--2-2-2- 2--2--2--2-2-2--3--3--3-3-3---7--7--7--2-2-7-7-2-2----------|
|-0--0--0-0-0--------------------------------5--5--5--3-3-5-5-0-0----------|

(if you find easyer to play just on the top floor you could play the chorus like this)

**ALTERNATIVE CHORUS**

|--------------------------------------------------------------------------------| 
|--------------------------------------------------------------------------------|
|--------------------------------------------------------------------------------|
|-2--2--2-2-2  ----9--9--9--9-9-9--10--10--10--10-10-10---7--7--7--2-2-7-7-2-2---|
|-2--2--2-2-2- ----9--9--9--9-9-9--10--10--10--10-10-10---7--7--7--2-2-7-7-2-2---|
|-0--0--0-0-0------7--7--7--7-7-7--8---8---8---8--8--8----5--5--5--3-3-5-5-0-0---|
Tap to rate this tab
 
# A B C D E F G H I J K L M N O P Q R S T U V W X Y Z