Song name
# A B C D E F G H I J K L M N O P Q R S T U V W X Y Z

Alice In Chains - Whale And Wasp tab

I noticed all the tabs for this song are incomplete. Since this is such an awesome song, 
thought I'd help. No solo just the rhythm. It's not perfect but it sounds really good 
Enjoy!

this section is real easy fingerstyle g5.repeat 4x (fig. a)

e--6-------5-------4---3------3------3-----6------8------11---3------3-------|
b----6-------5-----------3------3------------6------8-----------3------3-----|
g------0-------0-----------0------0----0-------0------0-----------0------0---|
d----------------------------------------------------------------------------|
a----------------------------------------------------------------------------|
E--6-------5-------4---3------3------3-----6------8------11---3------3-------|


e--3-------------------------------------------------------------------------|
b----------------------------------------------------------------------------|
g----0-----------------------------------------------------------------------|
d----------------------------------------------------------------------------|
a----------------------------------------------------------------------------|
E--3-------------------------------------------------------------------------|

repeat 2x  (fig. b)
                                                                 hp
e--3---------0-----------------0----------------------------0---030----------|
b----3---------3-----------------3---------------------3-------------3-0-----|
g------0---------0-----------------0-------0------0----0---------------------|
d---------4----------2-0-----------------0------0------0---------------------|
a-------------------------3-2----------3------2------------------------------|
E--3---------------------------------------------------3---------------------|


repeat fig. a 2x
then repeat fig. c 4x


e----------------------0---3---------------------------------------------------|
b--3----3----3/5--3------3----3----3----3----3---3---3---3---------------------|
g---0----0---------0-----------0----0----0--------0---0------------------------|
d----0----0---------0-----------0----0----0--------0---0---0-------------------|
a--2----3----3/5--3-----------3----2----0--------------------------------------|
E--------------------------------------------3---------------------------------|
then go right into
fig. d 4x back to fig. a to finish it out
e----------------------------------------------------------------------------|
b--3---3--------3----------3-----3--------3-----------3------3------3----3---|
g---0---0--------0---0------0-----0--------0----0-------0------0---------0---|
d----0---0------------0------0-----0-------------0---------------------------|
a--2------0--3---------0---2--------0--3----------0---2---2--3---3--0--------|
E------3-----------3-------------3------------3--------------------------3---|
Tap to rate this tab
# A B C D E F G H I J K L M N O P Q R S T U V W X Y Z