Song name
# A B C D E F G H I J K L M N O P Q R S T U V W X Y Z

Alice In Chains - Fear The Voices tab

			Fear The Voices – Alice in Chains
-----------------------------------------------------------------------------
Tabbed by: thrawn86
Love this song.  Don’t have the fancy tabs and couldn’t find one for this, so I did this 
one by ear.  Not getting carried away with strum diagrams….let you figure out that 
yourself.  This tab should be almost 100% correct.

Tuning: ½ step down

Intro with Wah			      Bridge to Verse, distorted
e|3--3--3--1--1---------------------|---------------------------------------|
B|3--3--3--1---3--------------------|---------------------------------------|
G|5--5--5--3--------Play twice------|-9b10----------------------------------|
D|5--4--3--1------------------------|-10b11-10-8~------8-10b11r10---8-------|
A|----------------------------------|-------------8h10----------------10~~--|
E|----------------------------------|---------------------------------------|

Verse/Chorus/Under Solo (main riff)
e|--------------------------------------------------------------------------|
B|--------------------------------------------------------------------------|
G|--------------------------------------------------------------------------|
D|----xx-----x---x---------xx-----xx-----0-3-x----------Repeats-------------|
A|----xx-1h3-x-4-x-3p1-3p1-xx-----xx-1h3-----x-3-3~~~~----------------------|
E|1h3-xx-----x---x---------xx-1h3-xx---------x------------------------------|
“Put our heads together……”


Mid Verse 1st time			    2nd time
e|---------------------------------------|----------------------------------|
B|---------------------------------------|----------------------------------|
G|3/5-----3/5----------------------------|-7-----------6-5------------------|
D|3/5-----3/5--------then play Verse-----|-7-(sustain)-6-5------------------|
A|1/3-----1/3--------riff once-----------|-5-----------4-3---3-1-3-1~~~~----|
E|(quick slides)-------------------------|----------------------------------|
“Yeaaaaaaaahhhhh….put our heads together”    “Ahhhhhh, ahh ahhhhh”


Break: Play Intro riff twice, then:
e|-------3---------------3------1~~~~~--------------------------------------|
B|-----3--------3------3--------1~~~~~--------------------------------------|
G|---5--------5------5--------3---------------------------------------------|
D|-5--------4------3--------1-----------------------------------------------|
A|--------------------------------------------------------------------------|
E|--------------------------------------------------------------------------|
“awake, awake, awake, awaaaaaake……”

Progression:

Intro x2   Verse x6   Mid Verse 1   Verse x1   Mid Verse 2   Chorus x4
(Second) Verse x4   Mid Verse 1   Verse x1  Mid Verse 2   Chorus x4
	Solo (Verse x4, Mid Verse 1, Verse x1, Mid Verse 2)
Intro x2   Break Riff x2  Chorus x4 and then fade out.

You can work out all of the various fills Jerry does.  Enjoy.  AiC rocks.
Tap to rate this tab
# A B C D E F G H I J K L M N O P Q R S T U V W X Y Z