Song name
# A B C D E F G H I J K L M N O P Q R S T U V W X Y Z

Alice In Chains - We Die Young tab

We Die Young
Facelift
Alice In Chains

Drop C#

Guitar 1 (Jerry Lead)
Guitar 2 (Jerry Rhythm)

Intro (Main Riff)
Guitar 2
|------------------------------------------------------------------|
|------------------------------------------------------------------|
|------------------------------------------------------------------|
|------------------------------------------------------------------|
|-2-0-0-6b--0-3-0-0-3-0-0-3-0-3-5-2-0-0-6b--0-3-0-0-3-0-5-5b-5-3-0-|
|-2-0-0-6b--0-3-0-0-3-0-0-3-0-3-5-2-0-0-6b--0-3-0-0-3-0-5-5b-5-3-0-|

Intro Lines (Scaries Pt)
Guitar 1&2
|------------------------------------------------------------------|
|------------------------------------------------------------------|
|------------------------------------------------------------------|
|------------------------------------------------------------------|
|-2-0-0-6b--0-3-0-0-3-0-0-3-0-3-5-2-0-0-6b--0-3-0-0-3-0-5-5b-5-3-0-|
|-2-0-0-6b--0-3-0-0-3-0-0-3-0-3-5-2-0-0-6b--0-3-0-0-3-0-5-5b-5-3-0-|
                                                                   |
|------------------------------------------------------------------|
|---------------------------------------------------------6---8----|
|---------------------------------------------------------5---7----|
|---------------------------------------------------------3---5----|
|-2-0-0-6b--0-3-0-0-3-0-0-3-0-3-5-2-0-0-6b--0-3-0-0-3-0-0-3---5----|
|-2-0-0-6b--0-3-0-0-3-0-0-3-0-3-5-2-0-0-6b--0-3-0-0-3-0-0---0------|

Verse
Guitar 1&2
|------------------------------------------------------------------|
|-13---6-----6---6-----6---8-6---13---6-----6---6-----6------------|
|-12---5-----5---5-----5---7-5---12---5-----5---5-----5------------|
|-10---3-----3---3-----3---5-3---10---3-----3---3-----3------------|
|-10---3-----3---3-----3---5-3---10---3-----3---3-----3-5-5b-5-3-0-|
|----0---0-0---0---0-0---0----------0---0-0---0---0-0---5-5b-5-3-0-|
                                                                   |
|------------------------------------------------------------------|
|-13---6-----6---6-----6---8-6---13---6-----6---6-----6---6-8------|
|-12---5-----5---5-----5---7-5---12---5-----5---5-----5---5-7------|
|-10---3-----3---3-----3---5-3---10---3-----3---3-----3---3-5------|
|-10---3-----3---3-----3---5-3---10---3-----3---3-----3---3-5------|
|----0---0-0---0---0-0---0----------0---0-0---0---0-0---0----------|

Chorus the Same As Intro Lines
Repeat Verse


Bridge
Guitar 1&2
|---------------------------------------|           |
|---------------------------------------|
|---------------------------------------|
|---------------------------------------|
|-3h5--3tr5-----------0-3-5-5b-5-3-0----|
|---------------------0-3-5-5b-5-3-0----|

|---------------------------------------|
|---------------------------------------|
|-7--5----------------------------------|             x2
|---------------------------------------|
|---------------------0-3-5-5b-5-3-0----|
|---------------------0-3-5-5b-5-3-0----|

|---------------------------------------|
|-6------------------8------------------|
|-5------------------7------------------|
|-3------------------5------------------|
|-3------------------5------------------|
|-3------------------5------------------|           |


Solo

Solo Rhythm
Guitar 2
Repeat Main Riff Twice

Repeat Intro
Repeat Intro Lines
Repeat Verse


End Chorus
Guitar 1&2
|------------------------------------------------------------------|
|------------------------------------------------------------------|
|------------------------------------------------------------------|
|------------------------------------------------------------------|
|-2-0-0-6b--0-3-0-0-3-0-0-3-0-3-5-2-0-0-6b--0-3-0-0-3-0-5-5b-5-3-0-|
|-2-0-0-6b--0-3-0-0-3-0-0-3-0-3-5-2-0-0-6b--0-3-0-0-3-0-5-5b-5-3-0-|

|------------------------------------------------|
|------------------------------------------------|
|------------------------------------------------|
|------------------------------------------------|
|-2-0-0-6b--0-3-0-0-3-0-0-3-0-3-5-2-0-0-6b--0-3--|
|-2-0-0-6b--0-3-0-0-3-0-0-3-0-3-5-2-0-0-6b--0-3--|
Tap to rate this tab
# A B C D E F G H I J K L M N O P Q R S T U V W X Y Z