Song name
# A B C D E F G H I J K L M N O P Q R S T U V W X Y Z

Alice In Chains - Sea Of Sorrow tab

-------------------------------------------------------------------------------
			     SONG NAME - Band Name
-------------------------------------------------------------------------------
Tabbed by: Mark Azzaretto
Email:markazzaretto@hotmail.com

Tuning: Eb



    Intro/Break
eb|--------------------|
Bb|--3---3---------5---|
Gb|--2---2---------4---|
Db|--------------------|  x2
Ab|--------------------|
Eb|-----------0--------|


    1st Ending To Intro
eb|---3---3----5b----5b----3---3----|
Bb|---3---3----5b----5b----3---3----|
Gb|---------------------------------|
Db|---------------------------------|
Ab|---------------------------------|
Eb|---------------------------------|

    2nd Ending To Intro
eb|---3-----------------------|
Bb|---3----5---------3/5------|
Gb|--------4---------2/4------|
Db|---------------------------|
Ab|---------------------------|
Eb|-------------0-------------|

    Verse
eb|---------------------|
Bb|---------------------|
Gb|---------------------|
Db|---3/5-------5---5---|  x4
Ab|---3/5-------5---5---|
Eb|---1/3---x---3---3---|

    2nd Part To Verse
eb|-----------------------------------------|
Bb|-----------------------------------------|
Gb|------------------------3/5---------5----|
Db|---5\3---------3--------3/5---------5----|
Ab|---5\3---------3--------1/3----x----3----|
Eb|---3\1----x----1-------------------------|

   Ending To Verse
eb|--------------------|
Bb|--------------------|
Gb|--------------------|
Db|----3/5---------5---|  x2
Ab|----3/5---------5---|
Eb|----1/3----x----3---|

   Bridge
eb|-----------------|
Bb|-----------------|
Gb|-------------5---|
Db|---3---------5---|
Ab|---3---------3---|
Eb|---1----x--------|


    1st & 2nd Ending To Bridge
eb|--------------------|
Bb|--------------------|
Gb|--------------------|
Db|---3/5---------5----|
Ab|---3/5---------5----|
Eb|---1/3----x----3----|


    3rd Ending To Bridge
eb|-------------------------------------------|
Bb|-------------------------------------------|
Gb|-------------------------------------------|
Db|---2---------4---2-------------------------|
Ab|---0----x----0---0----------x//////--------|
Eb|----------------------------x//////--------|
                               Pick Slide (Last Time Only)


    Chorus
eb|-----------------|
Bb|-----------------|
Gb|--------2--------|
Db|---5----2----2---|
Ab|---5----0----2---|
Eb|---3---------0---|


    Solo
eb|-----------------------------------------------------------------------|
Bb|---12h15p12h15(Repeat)---15br---12h15p12---15br------------------15----|
Gb|--------------------------------------------------12-12-12-12-12-14br--|
Db|-----------------------------------------------------------------------|
Ab|-----------------------------------------------------------------------|
Eb|-----------------------------------------------------------------------|

eb|--------------------------------------------------------------|
Bb|--------------------------------------------------------------|
Gb|-12--14--14p12--14---0h2p0(3x)-----5h7p5(3x)--7/9--12h14(4x)--|
Db|-------------------------------2~-----------------------------|
Ab|--------------------------------------------------------------|
Eb|--------------------------------------------------------------|

eb|-------------------------------------------------------------|
Bb|---------------------15/17--17--15--15--12--12--10--8---8----|
Gb|-14brp12-----------------------------------------------------|
Db|----------14p12--14--12/14--14--12--12--9---9---7---5---5----|
Ab|-------------------------------------------------------------|
Eb|-------------------------------------------------------------|
                          Repeat Octaves Twice

eb|-------------------------|
Bb|-------------------------|
Gb|-------------------------|
Db|------------5------------|
Ab|------5--7-----7--5--7---|
Eb|---/7----------------0---|


  r  release
  b  bend 
| /  slide up
| \  slide down
| h  hammer-on
| p  pull-off
| ~  vibrato
| +  harmonic
| x  Mute note
===============================================================================
Tap to rate this tab
 
# A B C D E F G H I J K L M N O P Q R S T U V W X Y Z