Song name
# A B C D E F G H I J K L M N O P Q R S T U V W X Y Z

Alice In Chains - Rain When I Die tab

Artist: Alice in Chains
Title: Rain When I Die
Album: Dirt

Tuning:Db Ab Db Gb Bb Eb

Tabbed by: Brownbear93  

The opening of this song consists of alot of random noise and whammy
tricks so it may not be 100% but should be a good guide. Please comment 
any corrections/feedback

Intro

G1
|--------<19>----------------------------------------------------------------|
|--------<19>----------------------------------------------------------------|
|--------<19>----------------------------------------------------------------|
|----------------------------------------------------------------------------|
|----------------0w---------/5~----5/7-8~---10-12~------14-12/14-15~---------|
|----------------------------------------------------------------------------|
|
|G2 w/wah
|---------------------------------------------------------------------------|
|---------------------------------------------------------------------------|
|-------------------------------------------xxxxxxx--xxxxxxxx--xxx\---------|
|-------------------------------------------xxxxxxx--xxxxxxxx--xxx\---0www--|
|-------------------------------------------xxxxxxx--xxxxxxxx--xxx\---0www--|
|---------------------------------------------------------------------------|

G1
|---------------------------------------------------------------------------|
|---------------------------------------------------------------------------|
|---------------------------------------------------------------------------|
|---------------------------------------------------------------------------|
|-17b-----------------r--15h17p15\12~----10--8-8~---------------------------|
|---------------------------------------------------------------------------|
|
|G2
|---------------------------------------------------------------------------|
|---------------------------------------------------------------------------|
|-17/-------17bwww--/-------------10/12-12bw--wwwwww------------------------|
|------------------------------------------------------14bwwwwwwww----------|
|---------------------------------------------------------------------------|
|---------------------------------------------------------------------------|

G1                              *pick behind nut
|----------------------------x----------x----------------------|
|---------------------------x-x----------x---------------------|
|----------------0www----------x----------x--------------------|
|----------------0www------------------------------------------|
|----------------0www------------------------------------------|
|--------------------------------------------------------------|
|
|G2
|--------------------------------------------------------------|
|--------------------------------------------------------------|
|--------------------------------------------------------------|
|--------------------------------------------------------------|
|--------------------------------------------------------------|
|---12w-----------------12ww-------14w----------10w------------|

G1
|------------------------------------------------|
|------------------------------------------------|
|------------------------------------------------|
|------------------------------------------------|
|------------------------------------------------|
|---12-10bw-----12-10bw-----12-10bw-----12-10bw--|
|
|G2
|-----------------------------------------------15b--|
|---15-13-------15-13-------15-13-------15-13--------|
|----------------------------------------------------|
|----------------------------------------------------|
|----------------------------------------------------|
|----------------------------------------------------|

Main Riff w/wah
|------------------------------------------------|
|------------------------------------------------|
|------------------------------------------------|x2
|----------3~---------------------3~-------------|
|--5p3p0-------3h5--------5p3p0-------3h5---3----|
|--------3---0-----0-3-0--------3---0-----0---0--|

Verse

|------------------------------------------------|
|------------------------------------------------|
|------------------------------------------------|x4
|----------3~---------------------3~-------------|
|--5p3p0-------3h5--------5p3p0-------3h5---3----|
|--------3---0-----0-3-0--------3---0-----0---0--|
PM       .   .     .....        .   .     .   .

Chorus
|----------------1---------------1-------------|
|--------------1---1---------------1-----------|
|-----------3------------------3-----3---------|
|-----------3---------3--5-5---3--------3--5-5-|
|------0h5--1---------3--5-5---1--------3--5-5-|
|--0h3----------------3--5-5------------3--5-5-|

|--------------1----------------1-----------------------|
|------------1---1----------------1---------------------|
|----------3------------------3-----3--3/5-5---5-5-5-0--|
|----------3---------3--5-5---3--------3/5-5---5-5-5-0--|
|-----0h5--1---------3--5-5---1--------1/3-3---3-3-3-0--|
|--0h3---------------3--5-5-----------------------------|

Main Riff x2

Verse x4

Chorus

Main Riff x2

G1
|------------------------------------------------------|
|------------------------------------------------------|
|------------------------------------------------------|
|--0-----w--w--w---------------------------------------|
|--0-----w--w--w---------------------------------------|
|--0-----w--w--w---------------------------------------|
|
|G2
|------------------------------------------------------|
|------------------------------------------------------|
|------------------------------------------------------|
|------------------------------------------------------|
|--17brbrbrb-17brbrbrbrp15--17brbrbrb-17brbrbrbrp15----|
|------------------------------------------------------|

G1 
|-------------------------------------------------|
|-------------------------------------------------|
|--10-10-10--10-10-12--9-9-9--9-9-10--7-7-7--w----|
|--10-10-10--10-10-12--9-9-9--9-9-10--7-7-7--w----|
|-------------------------------------------------|
|-------------------------------------------------|
|
|G2
|------------------------------------------------|
|------------------------------------------------|
|--17------------------17br-16-------16--14~-----|
|------------------------------------------------|
|------------------------------------------------|
|------------------------------------------------|
|
|G3
|---------------------------------------------15br--13h15p13~-|
|-------------------------------------------------------------|
|-------------------------------------------------------------|
|-------------------------------------------------------------|
|-------------------------------------------------------------|
|-------------------------------------------------------------|

G1 
|-------------------------------------------------|
|-------------------------------------------------|
|--10-10-10--10-10-12--9-9-9--9-9-10--7-7-7--w----|
|--10-10-10--10-10-12--9-9-9--9-9-10--7-7-7--w----|
|-------------------------------------------------|
|-------------------------------------------------|
|
|G2
|------------------------------------------------|
|------------------------------------------------|
|--17------------------17br-16-------------------|
|--------------------------------------15--------|
|------------------------------------------17~---|
|------------------------------------------------|
|
|G3
|---------------------------------------------------------|
|-------------------------------------------15b-------15\-|
|---------------------------------------------------------|
|---------------------------------------------------------|
|---------------------------------------------------------|
|---------------------------------------------------------|

                                           x2
|--------------------------------------------|-------------|
|-----------3~--------------------3~---------|-------------|
|-------2---------------------2--------------|-------------|
|--3--0---3-----0--0-3---3--0---3----0--0----|-------------|
|-----------------------------------------3--|-0-----------|
|--------------------------------------------|-------/10\--|

Main Riff x2

verse x4

chorus 

Main Riff x2

G1
|------------------------------------------------|
|------------------------------------------------|
|------------------------------------------------|repeat until end
|------------------------------------------------|
|------------------------------------------------|
|---12-10bw-----12-10bw-----12-10bw-----12-10bw--|

G2                                                                         fade out
|-------19---------------------------------------------------------------------------|
|----------19--15--------------------------------------------------------------------|
|------------------------------19b--17h19--------------------------------------------|
|-----------------------------------------17~---------7--9b(9-9-9-9-9)rp7---7/3---b--|
|------------------------------------------------------------------------------------|
|------------------------------------------------------------------------------------|

| /   slide up
| \   slide down
| h   hammer-on
| p   pull-off
| ~   vibrato
| w   use bar
| x   Mute note
| b   Bend
| pb  Pre-bend
| br  Bend release
| pbr Pre-bend release
| brb Bend release bend
Tap to rate this tab
 
# A B C D E F G H I J K L M N O P Q R S T U V W X Y Z