Song name
# A B C D E F G H I J K L M N O P Q R S T U V W X Y Z

Alice In Chains - Hate To Feel tab

Hate to Feel Solo
Alice In Chains
Half Step Down Tuning
(Eb-Ab-Db-Gb-Bb-eb)

This is just the solo another user has uploaded a very good tab
for the rest of this song.

*Use Wah in heel down position as a filter*

-----------------------------------------------------------|
-----15-----15-----15--------------------------------------|
-14b----14b----14b----14-------12-14-14b~---15-15-14-12~~--|
-------------------------12-14-----------------------------|
-----------------------------------------------------------|
-----------------------------------------------------------|

-----------------------------------------------------------|
-------------12-15b-15p12----------------------------------|
-------12-14--------------14-12-14b-12---------------------|
-12-14---------------------------------12-14---------------|
-----------------------------------------------------------|
-----------------------------------------------------------|

-----------------------------------------------------------|
-----------------------------------------------------------|
-----------------------------------------------------------|
-14b-14b-14-12-*14---12h14-12~~-12h14-12~~--12h14b---------|
-----------------------------------------------------------|
-----------------------------------------------------------|
*pinch harmonic            Wah        Wah

-----------------------------------------------------------|
-----------------------------------------------------------|
--------12-14-14b~--14-14----------------------------------|
-12-14--------------------14--17p14------------------------|
-----------------------------------------------------------|
-----------------------------------------------------------|

------------------------------------------------------------|
------15-12-----------------------------15p12---------------|
------------14-12-15p14p12-----14b14b16------15p14p12-14b16-|
-14brb--------------------14-0^-----------------------------|
------------------------------------------------------------|
------------------------------------------------------------|
                   Wah----      ^=Dive with bar
Tap to rate this tab
# A B C D E F G H I J K L M N O P Q R S T U V W X Y Z