Song name
# A B C D E F G H I J K L M N O P Q R S T U V W X Y Z

Alice In Chains - It Aint Like That tab

It Ain't Like That
Alice in Chains
Half Step Down Tuning
(Eb-Ab-Db-Gb-Bb-eb)

Main Riff Part 1 (play the E Chord with an upstroke)
-0----------------------------------------------|
-0----------------------------------------------|
-1----------------------------------------------|
-2----------------------------------------------|
-2----------------------------------------------|
-0-3s5b4p0--------------------------------------|

Main Riff Part 2
------------------------------------------------|
------------------------------------------------|
------------------------------------------------|
------------------------------------------------|
-2-2-3-3-5-5-3-3--------------------------------|
-0-0-1-1-3-3-1-1--------------------------------|

Chorus
------------------------------------------------|
------------------------------------------------|
------------------------------------------------|
-5-5--------------------------------------------|
-3-3-5-5-7-7--2-2-3-3-5-5-3-3-------------------|
-----3-3-5-5--0-0-1-1-3-3-1-1-------------------|

Main Riff Part 1 (play the E Chord with an upstroke)
-0----------------------------------------------|
-0----------------------------------------------|
-1----------------------------------------------|
-2----------------------------------------------|
-2----------------------------------------------|
-0-3s5b4p0--------------------------------------|

Main Riff Part 2
------------------------------------------------|
------------------------------------------------|
------------------------------------------------|
------------------------------------------------|
-2-2-3-3-5-5-3-3--------------------------------|
-0-0-1-1-3-3-1-1--------------------------------|

Chorus
------------------------------------------------|
------------------------------------------------|
------------------------------------------------|
-5-5--------------------------------------------|
-3-3-5-5-7-7--2-2-3-3-5-5-3-3-------------------|
-----3-3-5-5--0-0-1-1-3-3-1-1-------------------|

Solo
------------------------------------------------|
------------------------------------------------|
-----------------------7-9~~~-7-9-9-9b11--------|
-8~~~--------------7-8--------------------------|
--------7~~~---7-8------------------------------|
------------------------------------------------|

--------------------15b17-15p13p12--------------|
------------------------------------------------|
-12-(14-14-14-14)-12----------------------------|
------------------------------------------------|
------------------------------------------------|
------------------------------------------------|
()=Gradually bend up

------------------------------------------------|
-14-14-14-12-12-12-10-10-10-9-9-9---------------|
----------------------------------9-9b11--------|
------------------------------------------------|
------------------------------------------------|
------------------------------------------------|

-0----------------------------------------------|
-0----------------------------------------------|
-1------------------------2h4~~---------4-4b6---|
-2------------0h2~~---0h2------0h2--4p2---------|
-2----------------------------------------------|
-0--3s5b4p0-------------------------------------|

Main Riff Part 1 (play the E Chord with an upstroke)
-0----------------------------------------------|
-0----------------------------------------------|
-1----------------------------------------------|
-2----------------------------------------------|
-2----------------------------------------------|
-0-3s5b4p0--------------------------------------|

Main Riff Part 2
------------------------------------------------|
------------------------------------------------|
------------------------------------------------|
------------------------------------------------|
-2-2-3-3-5-5-3-3--------------------------------|
-0-0-1-1-3-3-1-1--------------------------------|

Chorus
------------------------------------------------|
------------------------------------------------|
------------------------------------------------|
-5-5--------------------------------------------|
-3-3-5-5-7-7--2-2-3-3-5-5-3-3-------------------|
-----3-3-5-5--0-0-1-1-3-3-1-1-------------------|
Tap to rate this tab
 
# A B C D E F G H I J K L M N O P Q R S T U V W X Y Z