Song name
# A B C D E F G H I J K L M N O P Q R S T U V W X Y Z

Alice In Chains - Heaven Beside You Acoustic tab

Heaven Beside You-Alice In Chains(Unplugged)
Tabbed by: Joshua ONeal
E-mail: josh_n_indy1986@yahoo.com

Tuning: Standard
Verse
Guitar 1
e|-----------------------------------------------|
B|-----------------------------------------------|
G|-----------------------------------------------|
D|------5b-----------------0-------------------0-|
A|------------7--------7-------7-----------5-----|
E|-0--------------5----------------5---3---------|
Guitar 2         
e|---9---10---9/10\9---9---10\9/10---7/9\7|
B|----------------------------------------|
G|---9---10---9/10\9---9---10\9/10---7/9\7|
D|----------------------------------------|
A|----------------------------------------|
E|----------------------------------------|

E|---9---10\9/10---7/9\7---9---10\9\7/10--|
B|----------------------------------------|
G|---9---10/9\10---7/9\7---9---10\9\7/10--|
D|----------------------------------------|
A|----------------------------------------|
E|----------------------------------------|



Chorus 
Guitars 1&2 
e|-0-0---0--0--0--0---0---0-0---0--0--0--0-|
B|-0-0---0--0--0--0---0---0-0---0--0--0--0-|
G|-6-6---6--6--6--6---4---4-4---4--4--4--4-|
D|-7-7---7--7--7--7---5---5-5---5--5--5--5-|
A|-7-7---7--7--7--7---5---5-5---5--5--5--5-|
E|-5-5---5--5--5--5---3---3-3---3--3--3--3-|

e|-0--0---0--0--0--0----0---0-0--0--0--0--0|
B|-0--0---0--0--0--0----0---0-0--0--0--0--0|
G|-9--9---9--9--9--9----8---8-8--8--8--8--8|
D|-10-10--10-10-10-10---9---9-9--9--9--9--9|
A|-10-10--10-10-10-10---9---9-9--9--9--9--9|
E|-8--8---8--8--8--8----7---7-7--7--7--7--7|
Play the riff above 4x at the end replace with 
The riff below
e|-0---0-0--0--0------|
B|-0---0-0--0--0------|
G|-8---8-8--8--8--7--9|
D|-9---9-9--9--9--7--9|
A|-9---9-9--9--9--5--7|
E|-7---7-7--7--7------|



Bridge 
Guitar 1
e|-------------------------------------------------------------------|
B|-------------------------------------------------------------------|
G|-----0-------0--------0-------0--------0-------0--------0-------0--|
D|-------------------------------------------------------------------|
A|---3---3---3---3----4---4---4---4----5---5---5---5----6---6---6---6|
E|-4-------4--------5-------5--------6-------6--------7-------7------|
Guitar 2
e|-------------------------------------------------------------------|
B|-------------------------------------------------------------------|
G|-------------------------------------------------------------------|
D|-------------------------------------------------------------------|
A|-3-3-3-3-3-3-3-3--4-4-4-4-4-4-4-4--5-5-5-5-5-5-5-5--6-6-6-6-6-6-6-6|
E|-4-4-4-4-4-4-4-4--5-5-5-5-5-5-5-5--6-6-6-6-6-6-6-6--7-7-7-7-7-7-7-7|
Bridge Part 2 and Rhythm to Solo 
Guitars 1&2
e|-0-----------------------------------------------0---|
B|-0-----------------------------------------------0---|
G|-0-----------------------------------------------0---|
D|-2-------------------------------0--------0---2--2---|
A|-2-------7-------------------2---------1------2--2---|
E|-0---0---------0--5b------3---------2---------0--0---|
Play the riff above 3x and the on below on the 4th 
e|-0---------------------------------------------------|
B|-0---------------------------------------------------|
G|-0---------------------------------------------------|
D|-2------------------------------0-------0-----------2|
A|-2-------7------------------2--------1---------------|
E|-0---0---------0--5b-----3--------2--------2----0----|






************************************

| /   slide up
| \   slide down
| h   hammer-on
| p   pull-off
| ~   vibrato
| +   harmonic
| x   Mute note
| b   Bend
| pb  Pre-bend
| br  Bend release
| pbr Pre-bend release
| brb Bend release bend

************************************
Tap to rate this tab
 
# A B C D E F G H I J K L M N O P Q R S T U V W X Y Z