Guitaretab - guitar tabs
Song name
# A B C D E F G H I J K L M N O P Q R S T U V W X Y Z

Alice In Chains - Angry Chair tab

Angry Chair  Solo
Tuning - Eb Ab Db Gb Bb eb  (D# G# C# F# A# D#)
Tabbed by Anthony DePiano (5/29/07)

I hope this is correct.  I listened to it and played along
with the solo many times.  This is the closest that I can
get it.

b = bend note
r = release
h = hammer-on
p = pull-off
\ = slide
v = vibrato


eb---------------22b24-24-24-24-24-24-24--|
Bb----------------------------------------|
Gb----------------------------------------|
Db----------------------------------------|
Ab----------------------------------------|
Eb----------------------------------------|
[ Tab from: http://www.guitaretab.com/a/alice-in-chains/353.html ]
eb------------------------------------------------|
Bb------------------------------------------------|
Gb--------------------------------9---------------|
Db--------------5vvv----9b10-9b10-9---14-14-12vv--|
Ab----\7-7----------------------------------------|
Eb----------5b------------------------------------|

eb---------12--------------------------------------------15b17--|
Bb-------12--12-15b--17b18-16-15--------------------------------|
Gb-14b16-------------------------16-15-14-12-14b15r14-12--------|
Db--------------------------------------------------------------|
Ab--------------------------------------------------------------|
Eb--------------------------------------------------------------|

eb---------------------------------x\-------------|
Bb-15b16vvr15-12h15p12-12h15-15b17-x\-------------|
Gb-14b15vvr14-------------------------------------|
Db------------------------------------------------|
Ab------------------------------------------------|
Eb----------------------------------------0vvvv---|
Related for Angry Chair tab