Guitaretab - guitar tabs
Song name
# A B C D E F G H I J K L M N O P Q R S T U V W X Y Z

Alice In Chains - Bleed The Freak tab

Bleed The Freak Ė Solo
Tuning Ė Eb Ab Db Gb Bb eb (same as D# G# C# F# A# D#)
Tabbed by Anthony DePiano (5/7/07)

Itís been 17 years and no one has posted a tab for the solo.  This is my stab at it.  I 
itís pretty accurate.  If itís not 100% correct, at least you can use it as a reference 
you want to figure it out.

b = bend note
r = return bend to original note
h = hammer-on
p = pull-off
() = optional note.  You donít have to play it.
~ = vibrato
Pm... = palm mute
[ Tab from: http://www.guitaretab.com/a/alice-in-chains/354.html ]
eb-----------------------------------------------------------|
Bb--2----1---------------------------------------------------|
Gb--4b6--3b5---------------------------------------------6~--|
Db------------0-2-----------------6b8r6p4----------4-6-------|
Ab----------------4~-2-4-4-2-4-4----------6~-4-6-6-----------|
Eb-----------------------------------------------------------|
              Pm................             Pm.......

eb---------------------4h7p4h7p4-7b9-4-----4------------|
Bb------------------7b-----------------7b8---8r7--4~~~--|
Gb--6-6-6-6-6-6-6~-------------------------------(4)----|
Db-----------------------------------------------(4)----|
Ab------------------------------------------------------|
Eb------------------------------------------------------|
    Pm...........                       ^
                                        hold bent note and return

eb--------------------------------|
Bb-----------------6---4----------|
Gb-----------------6---4----------|
Db--4-6-6-6-4-6-6-(6)-(4)---------|
Ab-----------------------4b~~~~---|
Eb--------------------------------|
    Pm...........
Related for Bleed The Freak tab