Song name
# A B C D E F G H I J K L M N O P Q R S T U V W X Y Z

Alice In Chains - Voices tab

-------------------------------------------------------------------------------
                              Alice In Chains-Voices
-------------------------------------------------------------------------------
Tabbed by: Jaytee805
E-mail: jaytee805@gmail.com

Tuning: Half-step down

Intro begins on a sweet riff like this:
e----------------------------------------------------------------------------|
B|---------------------------------------------------------------------------|
G|---------------------------------------------------------------------------|
D|---7-4--2-4-4--4-4--4-4-4--7-4--2-4-4--4-4--2-4-4--------------------------|
A|---5-2--0-2-2--2-2--2-2-2--5-2--0-2-2--2-2--0-2-2--------------------------|
E|---5-2--0-2-2--2-2--2-2-2--5-2--0-2-2--2-2--0-2-2--------------------------|

Jerry riffs on that part for a while through the verse, then it hits the chorus:
e|---------------------------------------------------------------------------|
B|---------------------------------------------------------------------------|
G|---7-7-7-7-----------------4-4-4-4-7-7-7-7-----------------4-4-4-4---------|
D|---7-7-7-7-7-7-7-7-2-2-2-2-4-4-4-4-7-7-7-7-7-7-7-7-2-2-2-2-4-4-4-4---------|
A|---5-5-5-5-7-7-7-7-2-2-2-2-2-2-2-2-5-5-5-5-7-7-7-7-2-2-2-2-2-2-2-2---------|
E|-----------5-5-5-5-0-0-0-0-----------------5-5-5-5-0-0-0-0-----------------|

After the chorus, it keeps it goin' on the verse part in the background, with this solo
played over:
e|------------------------7----------9---------------------------------------|
B|---------------7--------7----------9-----------7---------------------------|
G|---------------7----------7--------9-----------7-------9-7-----------------|
D|---9-9-9-9--9----9-9-7------9-9-9----9-9-9-9-9---9-9-9-----9-9-------------|
A|---------------------------------------------------------------------------|
E|---------------------------------------------------------------------------|

e|---------------------------------------------------------------------------|
B|---------------------------------------------------------------------------|
G|-------7-----------6-7-7^9-7^9---------------------------------------------|
D|---7-9---9-9~---/9-------------7h9~----------------------------------------|
A|---------------------------------------------------------------------------|
E|---------------------------------------------------------------------------|

After this it comes back to the verse, which is the same as the first one. This is
followed by the chorus, which is twice as long. Then it hits the bridge part, which is 
as follows:
e|---------------------------------------------------------------------------|
B|---------------------------------------------------------------------------|
G|-------------------4-4-4-4-7-7-----------------------4-4-4-4-7-7-----------|
D|---5-5-5-5-2-2-2-2-4-4-4-4-7-7-7-7-5-5-5-5-2-2-2-2-4-4-4-4-7-7-7-7---------|
A|---5-5-5-5-2-2-2-2-2-2-2-2-5-5-7-7-5-5-5-5-2-2-2-2-2-2-2-2-5-5-7-7---------|
E|---3-3-3-3-0-0-0-0-------------5-5-3-3-3-3-0-0-0-0-------------5-5---------|

It riffs on that part a few times, then goes back to the verse part for a few times,
with the same solo played over it, a third verse, and then a chorus, again double the
length of the first. It goes back to the bridge again and ends on a cool fade-out part. 
That's about it for this song. Hope you guys enjoy the new album!

************************************
KEY TO SUCCESS:

| /   slide up
| \   slide down
| h   hammer-on
| p   pull-off
| ~   vibrato
| +   harmonic
| x   Mute note
| ^   Bend
************************************

E-mail me^if you got any questions or tabbing suggestions/requests! All styles of music
are cool man!
Tap to rate this tab
# A B C D E F G H I J K L M N O P Q R S T U V W X Y Z