Song name
# A B C D E F G H I J K L M N O P Q R S T U V W X Y Z

Alice In Chains - Voices tab

Artist: Alice in Chains
Title: Voices
Album: The Devil Put Dinosaurs Here
Tabbed by: ebbx96

Acoustic Gtr (D# G# C# F# A# D#)

Intro:
|--------------------------------------------------------|
|--------------------------------------------------------|
|--------------------------------------------------------|
|---7----------------------------------------------------|    2x
|---5-7-x-2-x-9-9-----9-9-7-7-9-7-7----------------------|
|-----5-x-0-x-7-7-----7-7-5-5-7-5-5----------------------|

Verse:
|--------------------------------------------------------|
|--------------------------------------------------------|
|--------------------------------------------------------|
|---7----------------------------------------------------|    8x
|---5-7-x-2-x-9-9-----9-9-7-7-9-7-7----------------------|
|-----5-x-0-x-7-7-----7-7-5-5-7-5-5----------------------|

1st Chorus:        *No specific strum pattern
|-------------------------------------------------------|
|-------------------------------------------------------|
|-------------------------------------------------------|
|---7-7-7-7---------9-9-9-9-----------------------------|   2x
|---5-5-5-5-7-7-7-7-7-7-7-7-9-9-9-9---------------------|
|-----------5-5-5-5----------7-7-7-7--------------------|

Verse:
|--------------------------------------------------------|
|--------------------------------------------------------|
|--------------------------------------------------------|
|---7----------------------------------------------------|    8x
|---5-7-x-2-x-9-9-----9-9-7-7-9-7-7----------------------|
|-----5-x-0-x-7-7-----7-7-5-5-7-5-5----------------------|

2nd Chorus:        *No specific strum pattern
|-------------------------------------------------------|
|-------------------------------------------------------|
|-------------------------------------------------------|
|---7-7-7-7---------9-9-9-9-----------------------------|   4x
|---5-5-5-5-7-7-7-7-7-7-7-7-9-9-9-9---------------------|
|-----------5-5-5-5----------7-7-7-7--------------------|

1st Bridge:          *No specific strum pattern
|-------------------------------------------------------|
|-------------------------------------------------------|
|-------------------------------------------------------|
|----------------------------7-7-7-7--------------------|   4x
|---5-5-5-5-2-2-2-2-9-9-9-9-5-5-5-5---------------------|
|---3-3-3-3-0-0-0-0-7-7-7-7-----------------------------|

|-------------------------|
|-------------------------|
|-------------------------|
|-------------------------|  1x
|---5-5-5-5-2-2-2-2-------|
|---3-3-3-3-0-0-0-0-------|

Verse:
|--------------------------------------------------------|
|--------------------------------------------------------|
|--------------------------------------------------------|
|---7----------------------------------------------------|    8x
|---5-7-x-2-x-9-9-----9-9-7-7-9-7-7----------------------|
|-----5-x-0-x-7-7-----7-7-5-5-7-5-5----------------------|

3rd Chorus:        *No specific strum pattern
|-------------------------------------------------------|
|-------------------------------------------------------|
|-------------------------------------------------------|
|---7-7-7-7---------9-9-9-9-----------------------------|   4x
|---5-5-5-5-7-7-7-7-7-7-7-7-9-9-9-9---------------------|
|-----------5-5-5-5----------7-7-7-7--------------------|

2nd Bridge:          *No specific strum pattern
|-------------------------------------------------------|
|-------------------------------------------------------|
|-------------------------------------------------------|
|----------------------------7-7-7-7--------------------|   4x
|---5-5-5-5-2-2-2-2-9-9-9-9-5-5-5-5---------------------|
|---3-3-3-3-0-0-0-0-7-7-7-7-----------------------------|

|--------------------|
|--------------------|
|--------------------|
|--------------------|  1x
|---5-5-5-5-2--------|
|---3-3-3-3-0--------|

Ending:
|--------------------------------------------------------|
|--------------------------------------------------------|
|--------------------------------------------------------|
|---7----------------------------------------------------|    3x
|---5-7-x-2-x-9-9-----9-9-7-7-9-7-7----------------------|
|-----5-x-0-x-7-7-----7-7-5-5-7-5-5----------------------|

|--------------------------------------------------------|
|--------------------------------------------------------|
|--------------------------------------------------------|
|---7----------------------------------------------------|    1x
|---5-7-x-2-x-9-9----------------------------------------|
|-----5-x-0-x-7-7----------------------------------------|

************************************

| /   slide up
| \   slide down
| h   hammer-on
| p   pull-off
| ~   vibrato
| +   harmonic
| x   Mute note
| b   Bend
| pb  Pre-bend
| br  Bend release
| pbr Pre-bend release
| brb Bend release bend

************************************
Last Edited: May 30, 2013
Tap to rate this tab
# A B C D E F G H I J K L M N O P Q R S T U V W X Y Z