Song name
# A B C D E F G H I J K L M N O P Q R S T U V W X Y Z

Alice In Chains - God Am tab

KEY
*=palm muting
!=staccato (short) note
/=slide up
\=slide down

this is the correct version, i believe

Main Riff

Eb------------------1---------------0----------1------|
Bb------------------1---------------0----------1------|
F#----------------------------------------------------|
C#--9--7-7-X-3---3------3-3-3-3--3------3-3-3-----3-3-|
Ab--9--7-7-X-3---3------3-3-3-3--3------3-3-3-----3-3-|
Eb--7--5-5-X-1---1------1-1-1-1--1------1-1-1-----1-1-|
       * *   *   *  !   * * * *  *      * * *  !  * *

Chorus
Eb------------------------------|
Bb------------------------------|
F#------------------------------|
C#--9--7---3--3---5-5-5-5/7-7-7-|
Ab--9--7---3--3---5-5-5-5/7-7-7-|
Eb--7--5---1--1---3-3-3-3/5-5-5-|

Post Chorus
Eb------------|--------------------------|
Bb------------|--------------------------|
F#------------|--7/9-9-9-9\7-7-5-4-5-4-2-|
C#--9--7---3--|--x-x-x-x-x-x-x-x-x-x-x-2-|
Ab--9--7---3--|--5/7-7-7-7\5-5-3-2-3-2-0-|
Eb--7--5---1--|--------------------------|
              ^ (halfway point)

order:
main riff x8
chorus x4
main riff x4
chorus x4
post chorus x4
main riff x4
chorus x4
post chorus x4 1/2
Tap to rate this tab
 
# A B C D E F G H I J K L M N O P Q R S T U V W X Y Z