Song name
# A B C D E F G H I J K L M N O P Q R S T U V W X Y Z

Alice In Chains - I Know Something tab

"I Know Something (Bout You)"
Alice In Chains
Facelift
Columbia Records 1990

Tabbed by Yohomyth

Tuning: D#
D# G# C# F# A# D#


Intro
=====
1:-11/12-12-12--x-12--x-x-12--12--x-x-|
2:-11/12-12-12--x-12--x-x-12--12--x-x-|
3:-11/12-12-12--x-12--x-x-12--12--x-x-|
4:------------------------------------|
5:------------------------------------|
6:------------------------------------|


Preverse Fill
=============
1:-11/12-12-12---------------|
2:---------------------------|
3:---------------------------|
4:---------------------------|
5:---------------7-6-5-------|
6:---------------------8b9---|


Main Riff
=========
1:----------------------|
2:----------x-x-7--5b6--|
3:----------x-x-7--5b6--|
4:----------x-x-7--5b6--|
5:----------------------|
6:-3--4--5--------------|

1:------------------------------|
2:-------5b6--------------------|
3:-------5b6--------------------|
4:-5-6-7-5b6--7-5---------------|
5:----------------7-6-5---------|
6:----------------------8b9-5---|

1:----------------------|
2:----------x-x-7--5b6--|
3:----------x-x-7--5b6--|
4:----------x-x-7--5b6--|
5:----------------------|
6:-3--4--5--------------|

1:-------------------------|
2:-------5b6---------------|
3:-------5b6---------------|
4:-5-6-7-5b6---------------|
5:------------7-6-5--------|
6:------------------8b9----|


Verse Fill
==========
1:----------------------------|
2:-5----5----5----------------|
3:-7b9--7b9--7b9-b7p5---------|
4:--------------------7--7----|
5:----------------------------|
6:----------------------------|

1:-----5------5---------------|
2:-5h8---8b10---8-5-----------|
3:------------------7-5-------|
4:----------------------------|
5:----------------------------|
6:----------------------------|


Verse Riff 2
============
1:----------------------|
2:----------x-x-9--7b8--|
3:----------x-x-9--7b8--|
4:----------x-x-9--7b8--|
5:----------------------|
6:-5--6--7--------------|

1:--------------------------------|
2:-------7b8----------------------|
3:-------7b8----------------------|
4:-7-8-9-7b8--9-7-----------------|
5:----------------9-8-7-----------|
6:----------------------10b11-7---|

1:----------------------|
2:----------x-x-9--7b8--|
3:----------x-x-9--7b8--|
4:----------x-x-9--7b8--|
5:----------------------|
6:-5--6--7--------------|

1:---------------------------|
2:-------7b9-----------------|
3:-------7b9-----------------|
4:-7-8-9-7b9-----------------|
5:------------9-8-7----------|
6:------------------10b11----|


Chorus A
========
1:---------------------------------|
2:---------------------------------|
3:-2--2--2---2-2---2--2--2---2-2---|
4:-2--2--2---2-2---2--2--2---2-2---|
5:-0--0--0---0-0---0--0--0---0-0---|
6:--------------3---------------3--|


Chorus A
========
1:---------------------------------|
2:---------------------------------|
3:-2--2--2---2-2---2--2--2---2-2---|
4:-2--2--2---2-25--2--2--2---2-25--|
5:-0--0--0---0-0---0--0--0---0-0---|
6:---------------------------------|
Tap to rate this tab
 
# A B C D E F G H I J K L M N O P Q R S T U V W X Y Z