Song name
# A B C D E F G H I J K L M N O P Q R S T U V W X Y Z

Alice In Chains - Brother Acoustic tab

Brother, From the MTV Unplugged
Tabber: Pearl_Jam_Fan
Listen to the CD to get the right Rythm

Intro:

eb|---0000-0s0s0--0----------------------------------------------|
bb|---2222-3s5s3--3----------------------------------------------|
gb|---2222-0s0s0--3----------------------------------------------|
db|---2222-3s5s3--3----------------------------------------------|
ab|---0000-0s0s0--0----------------------------------------------|
Eb|--------------------------------------------------------------|

|------------------------------------------------------|
|---------------------------5b-------------------------|
|-------------------------------6b---------------------|
|----------------------5-------------------------------|
|----------3---5---7-----------------------------------|
|---3---5----------------------------------------------|

|-------------------------------------------------------|
|-------------------5b-------8b-------------------------|
|-----------------------6b------------------------------|
|-------------------------------------------------------|
|---------3--5---7--------------------------------------|
|--3---5------------------------------------------------|

|-------------------------------------------------------|
|-------------------------5b----------------------------|
|------------------------------6b-----------------------|
|---------------------5---------------------------------|
|---------3---5---7-------------------------------------|
|--3---5------------------------------------------------|

|------------------------------------------------------|
|------------------------------------------------------|
|------------------------------------------------------|
|------------------5-----------------------------------|
|---------3--5--7--------------------------------------|
|--3--5------------------------------------------------|

Verse:
|--0000-0s0s0-0-----------------------------------------------|
|--2222-3s5s3-2-----------------------------------------------|
|--2222-0s0s0-2-----------------------------------------------|
|--2222-3s5s3-2-----------------------------------------------|
|--0000-0s0s0-0-----------------------------------------------|
|-------------------------------------------------------------|

Chorus:

|-1111--000--00--00--00--00--------------------------------------------|
|-1111--222--33--22--33--22--------------------------------------------|
|-2222--000--00--00--00--00--------------------------------------------|
|-3333--222--22--22--22--22--------------------------------------------|
|-3333--000--00--00--00--00--------------------------------------------|
|-1111--000--00--00--00--00--------------------------------------------|

|-1111---333-----------------------------------------------|
|-1111---333-----------------------------------------------|
|-2222---444-----------------------------------------------|
|-3333---555-----------------------------------------------|
|-3333---555-----------------------------------------------|
|-1111---333-----------------------------------------------|

|------------------------------------------------------|
|---------------------------5b-------------------------|
|-------------------------------6b---------------------|
|----------------------5-------------------------------|
|----------3---5---7-----------------------------------|
|---3---5----------------------------------------------|

|-------------------------------------------------------|
|-------------------5b-------8b-------------------------|
|-----------------------6b------------------------------|
|-------------------------------------------------------|
|---------3--5---7--------------------------------------|
|--3---5------------------------------------------------|

|-------------------------------------------------------|
|-------------------------5b----------------------------|
|------------------------------6b-----------------------|
|---------------------5---------------------------------|
|---------3---5---7-------------------------------------|
|--3---5------------------------------------------------|

|------------------------------------------------------|
|------------------------------------------------------|
|------------------------------------------------------|
|------------------5-----------------------------------|
|---------3--5--7--------------------------------------|
|--3--5------------------------------------------------|

Verse:
|--0000-0s0s0-0-----------------------------------------------|
|--2222-3s5s3-2-----------------------------------------------|
|--2222-0s0s0-2-----------------------------------------------|
|--2222-3s5s3-2-----------------------------------------------|
|--0000-0s0s0-0-----------------------------------------------|
|-------------------------------------------------------------|

Chorus:

|-1111--000--00--00--00--00--------------------------------------------|
|-1111--222--33--22--33--22--------------------------------------------|
|-2222--000--00--00--00--00--------------------------------------------|
|-3333--222--22--22--22--22--------------------------------------------|
|-3333--000--00--00--00--00--------------------------------------------|
|-1111--000--00--00--00--00--------------------------------------------|

|-1111---333-----------------------------------------------|
|-1111---333-----------------------------------------------|
|-2222---444-----------------------------------------------|
|-3333---555-----------------------------------------------|
|-3333---555-----------------------------------------------|
|-1111---333-----------------------------------------------|

Solo

-----------------------------------------------------5-----5--|
--------------------------------------------------5-----5-----|
----------------5--7--7b8-7----5-----5v-----5b----------------|
--5h7--7v--5h7----------------------7------7------------------|
--------------------------------------------------------------|
--------------------------------------------------------------|

----------------------------------------------------------------|
--5--8b10--8v--7--5--7b8----5-----------------------------------|
-------------------------------7--5--pb7b8-7--5-----------------|
-------------------------------------------------7--5--7--------|
----------------------------------------------------------5--3--|
----------------------------------------------------------------|

-------------------------------------------------------------------|
-------------------------------------------------------------------|
-----------------------------------5--pb7b8-7----7v--5--7p6p5--5v--|
-----------------------------5--7----------------------------------|
--5--3b5-3-----------3--5h7----------------------------------------|
------------5--3--5------------------------------------------------|

-------------------------------------------------------5--|
--7b8--7b8----------7b8--7b8---------------------------5--|
--7b8--7b8--7p5-----7b8--7b8--7p5-------------------5-----|
-----------------7-----------------7v----5h7v--5h7--------|
----------------------------------------------------------|
----------------------------------------------------------|

--8b10---8-5----------------------------------------------------------|
---------------8b10--8v----7--5--7b8--5-------------------------------|
-----------------------------------------7--5----7b8-7--5-------------|
-----------------------------------------------------------7--5--5h7--|
----------------------------------------------------------------------|
----------------------------------------------------------------------|

b: Bends
s: slide
v: vibrato
h: hammer
p: pull off
Tap to rate this tab
# A B C D E F G H I J K L M N O P Q R S T U V W X Y Z