Song name
# A B C D E F G H I J K L M N O P Q R S T U V W X Y Z

Alice In Chains - Scalpel chords

Highlighted       Show chord diagrams
-------------------------------------------------------------------------------
                             Scalpel - Alice in Chains
-------------------------------------------------------------------------------
Tabbed by: deliciousmark


Here's a quick stab at the tab for the song. Not entirely sure on the bridge, but
the main parts should be there.

Tuning: Tune guitar down a half step.

Basic chords for the intro/verse are as follows:

Ab, Eb, Db, Ab

Chorus:

Ab, E (major), Db, Ab


Intro/main verse:
eb|--------------------2-----------|
Bb|--2-----------------3---2--2--2-|
Gb|--2----1--1--1------2---2--2--2-|
Db|--2----2--2--2----------2--2--2-|
Ab|--o----2--2--2----------0--0--0-|
Eb|-------0--0--0------------------|


eb|--------------------2-----------|
Bb|--2-----------------3---2--2--2-|
Gb|--2----1--1--1------2---2--2--2-|
Db|--2----2--2--2----------2--2--2-|
Ab|--o----2--2--2----------0--0--0-|
Eb|-------0--0--0------------------|


Bridge:
eb|----0--------0-------|
Bb|----0--------3-------|
Gb|----2--------2-------|
Db|----3--------0-------|
Ab|----3----------------|
Eb|----1----------------|


Chorus:
eb|---------------------------------|
Bb|----2-------------------------2--|
Gb|----2--------9--------7-------2--|
Db|----2--------9--------7-------2--|
Ab|----0--------7--------5-------0--|
Eb|---------------------------------|
Tap to rate this tab
# A B C D E F G H I J K L M N O P Q R S T U V W X Y Z