Song name
# A B C D E F G H I J K L M N O P Q R S T U V W X Y Z

Alice In Chains - Breath On A Window tab

-------------------------------------------------------------------------------
                      Alice In Chains-Breath On A Window
-------------------------------------------------------------------------------
Tabbed by: Jaytee805
E-mail: jaytee805@gmail.com

Tuning: Half-Step Down

Alright, guys, so the song starts like this:
e|---------------------------------------------------------------------------|
B|---------------------------------------------------------------------------|
G|---9--9-9-9-9-9-9^--9-9-9-9-9-9-9^--9-9-9-9-9-9^--9-9-9-9-9-9--------------|
D|---9--9-9-9-9-9-9^--9-9-9-9-9-9-9^--9-9-9-9-9-9^--9-9-9-9-9-9--------------|
A|---7--7-7-7-7-7-7^--7-7-7-7-7-7-7^--7-7-7-7-7-7^--7-7-7-7-7-7--------------|
E|---0--0-0-0-0-0-0^--0-0-0-0-0-0-0^--0-0-0-0-0-0^--0-0-0-0-0-0--------------|

The vocals come in rather quickly, and the guitar part changes:
e|---------------------------------------------------------------------------|
B|---------------------------------------------------------------------------|
G|---9^--9-9-9-9-9-9-9-9^--9-9-9-9-9-9-9-7--7--7-----------------------------|
D|---9^--9-9-9-9-9-9-9-9^--9-9-9-9-9-9-9-7--7--7-7--7--2--2-2-2-2-2-2--------|
A|---7^--7-7-7-7-7-7-7-7^--7-7-7-7-7-7-7-5--5--5-7--7--2--2-2-2-2-2-2--------|
E|---0---0-0-0-0-0-0-0-0---0-0-0-0-0-0-0---------5--5--0--0-0-0-0-0-0--------|

The next part follows the melody line:
e|---------------------------------------------------------------------------|
B|---------------------------------------------------------------------------|
G|----------------------------------------------5---------7-7----------------|
D|---7-8-7-8--2--------7-8-7-8--2---------7-8-7-5--5------7-7--2-------------|
A|---7-8-7-8--2--------7-8-7-8--2---------7-8-7-3--5------5-5--2-------------|
E|---5-6-5-6--0--------5-6-5-6--0---------5-6-5----3-----------0-------------|

Then we come to this cool picking part:
e|---------------------------------------------------------------------------|
B|---------------------------------------------------------------------------|
G|-------2------------2-------0-------2---------2------0---------------------|
D|-----4---4--------2-------3--------4--4------2------3----------------------|
A|----4------4-----0------1---------4----4----0------1-----------------------|
E|---2---------2-------------------2-------2---------------------------------|

With that in the background, there is a short little solo, which goes like this:
e|--------------------------7p5--12^14-14-14-14^12-9-7-5---------------------|
B|----------------------7p5--------------------------------------------------|
G|------2---2-4-2-4^6--------------------------------------------------------|
D|---/4----------------------------------------------------------------------|
A|---------------------------------------------------------------------------|
E|---------------------------------------------------------------------------|

The part right after that is as follows:
e|---------------------------------------------------------------------------|
B|---------------------------------------------------------------------------|
G|---7--7--7-----------------4--4--4-7--7--7---------6--6--6-4--4--4---------|
D|---7--7--7-7--7--7-4--4--4-4--4--4-7--7--7-7--7--7-6--6--6-4--4--4---------|
A|---5--5--5-7--7--7-4--4--4-2--2--2-5--5--5-7--7--7-4--4--4-2--2--2---------|
E|-----------5--5--5-2--2--2-----------------5--5--5-------------------------|

The solo thing over that part goes like this:
e|---17^19-17--16-17-16-14--13-14-13-12-----12----14^16--14------------------|
B|---------------------------------------14----14----------------------------|
G|---------------------------------------------------------------------------|
D|---------------------------------------------------------------------------|
A|---------------------------------------------------------------------------|
E|---------------------------------------------------------------------------|

e|---17^19-17--16-17-16-14--13-14-13-12-----12----12^14----------------------|
B|---------------------------------------14----14----------------------------|
G|---------------------------------------------------------------------------|
D|---------------------------------------------------------------------------|
A|---------------------------------------------------------------------------|
E|---------------------------------------------------------------------------|

That's about it for this song. Feel free to rate and/or comment!

************************************
KEY TO SUCCESS:

| /   slide up
| \   slide down
| h   hammer-on
| p   pull-off
| ~   vibrato
| +   harmonic
| x   Mute note
| ^   Bend
************************************

E-mail me^if you got any questions or tabbing suggestions/requests! All styles of music 
are cool man!
Tap to rate this tab
 
# A B C D E F G H I J K L M N O P Q R S T U V W X Y Z