Song name
# A B C D E F G H I J K L M N O P Q R S T U V W X Y Z

Alice In Chains - Hung On A Hook tab

Intro:
|------------------------------------|
|-------3------------2---------------|
|------0--0---------0--0-------------| 4x
|-----3----3-------2----2------------|
|---1-------1----0-------0-----------|
|------------------------------------|

Lead Guitar:

|---10b'r--8--6--5--3b'r--0--/8--6--/9~~---------|
|---10b'r--8--6--5--3b'r--2--/8--6--/10~~--------|
|-------------------------------------------------|
|-------------------------------------------------|
|-------------------------------------------------|
|-------------------------------------------------|

Verse:

|-----------------------------------------------------------------------------------------|
|--------------------------------3-2------------------------------------------2-3~-2------|
|-----------------------------------3-2------------------------------------2-3------2~~---|  x2
|-----0-2br3r2-----------0-2br3--------3-2-0-----0-2br3r2----------0-2br3-----------------|
|---1----------0-0-----1-----------------------1----------0-0----1------------------------|
|---------------3------------------------------------------3------------------------------|


|------------------------------------|
|-------3------------2---------------|
|------0--0---------0--0-------------| x2
|-----3----3-------2----2------------|
|---1-------1----0-------0-----------|
|------------------------------------|

|-----------------------------------------------------------------------------------------|
|--------------------------------3-2------------------------------------------2-3~-2------|
|-----------------------------------3-2------------------------------------2-3------2~~---|
|-----0-2br3r2-----------0-2br3--------3-2-0-----0-2br3r2----------0-2br3-----------------|
|---1----------0-0-----1-----------------------1----------0-0----1------------------------|
|---------------3------------------------------------------3------------------------------|

Chorus:

|-------------------------------------------------------------|
|-------------------------------------------------------------|
|-------------------------------------------------------------|   x4
|---5/7-7-7-7--5-5----------------5-7-7-7--5-5----------------|
|---5/7-7-7-7--5-5----5--7-8-8----5-7-7-7--5-5----5--7-8-8----|
|---3/5-5-5-5--3-3----------------3-5-5-5--3-3----------------|

|-----------------------------------------------------|
|-----------------------------------------------------|
|----9-9-9-9-7--10-------9-9----9-9-7--10-------------|
|----9-9-9-9-7--10-------9-9----9-9-7--10-------------|
|----7-7-7-7-5--8--------7-7----7-7-5--8--------3-2---|
|-----------------------------------------------------|

|------------------------------------|
|-------3------------2---------------|
|------0--0---------0--0-------------| x2
|-----3----3-------2----2------------|
|---1-------1----0-------0-----------|
|------------------------------------|

|-----------------------------------------------------------------------------------------|
|--------------------------------3-2------------------------------------------2-3~-2------|
|-----------------------------------3-2------------------------------------2-3------2~~---|
|-----0-2br3r2-----------0-2br3--------3-2-0-----0-2br3r2----------0-2br3-----------------|
|---1----------0-0-----1-----------------------1----------0-0----1------------------------|
|---------------3------------------------------------------3------------------------------|

|------------------------------------|
|-------3------------2---------------|
|------0--0---------0--0-------------| x2
|-----3----3-------2----2------------|
|---1-------1----0-------0-----------|
|------------------------------------|

|-----------------------------------------------------------------------------------------|
|--------------------------------3-2------------------------------------------2-3~-2------|
|-----------------------------------3-2------------------------------------2-3------2~~---|
|-----0-2br3r2-----------0-2br3--------3-2-0-----0-2br3r2----------0-2br3-----------------|
|---1----------0-0-----1-----------------------1----------0-0----1------------------------|
|---------------3------------------------------------------3------------------------------|

|-------------------------------------------------------------|
|-------------------------------------------------------------|
|-------------------------------------------------------------|   x4
|---5/7-7-7-7--5-5----------------5-7-7-7--5-5----------------|
|---5/7-7-7-7--5-5----5--7-8-8----5-7-7-7--5-5----5--7-8-8----|
|---3/5-5-5-5--3-3----------------3-5-5-5--3-3----------------|

|-----------------------------------------------------|
|-----------------------------------------------------|
|----9-9-9-9-7--10-------9-9----9-9-7--10-------------|
|----9-9-9-9-7--10-------9-9----9-9-7--10-------------|
|----7-7-7-7-5--8--------7-7----7-7-5--8--------------|
|-----------------------------------------------------|

|-----------------------------------------------------|
|-----------------------------------------------------|
|----9-9-9-9-7--10-------9-9----9-9-7--10-------------|
|----9-9-9-9-7--10-------9-9----9-9-7--10-------------|
|----7-7-7-7-5--8--------7-7----7-7-5--8--------3-2---|
|-----------------------------------------------------|


Lead Guitar:      16x

|----------------------------------------------------------------|
|----------------------------------------------------------------|
|--------12b-r-b----------8b-r-b-r-------7b-r---brp5-------------|
|----------------------------------------------------------------|
|----0-----------------------------------------------------------|
|----------------------------------------------------------------|


|----------------------------|
|----------------------------|
|----2~~---------------------|
|----2~~---------------------|
|----0~~---------------------|
|----------------------------|
Tap to rate this tab
# A B C D E F G H I J K L M N O P Q R S T U V W X Y Z