Guitaretab - guitar tabs
Song name
# A B C D E F G H I J K L M N O P Q R S T U V W X Y Z

Alice In Chains - Head Creeps tab

-------------------------------------------------------------------------------
                           HEAD CREEPS - Alice In Chains
-------------------------------------------------------------------------------

Tabbed by: brian_s
Email: branimir.sremec@kc.t-com.hr


INTRO  1st PART:
D#-------------------------|
A#-------------------------|
F#-------------------------|
C#---2-----------------2---|
G#---2-----------------2---|
D#---0-----------------0---|


INTRO  2nd PART:
Guitar 1
D#--------------------------|------------------------|
A#------ play 7x -----------|-------- play 1x -------|
F#---------------------2b---|------------------------|
C#--------------------------|------------------------|            
G#---2-2-2-2-2--2-2-2-------|-2-2-2-2-2--2-2-2-2-3---|            
D#---0-0-0-0-0--0-0-0-------|-0-0-0-0-0--0-0-0-0-1---|            
                                          
Guitar 2                                 
D#---------------------------------|     
A#---------------------------------|     
F#----/12-----------/11------/16---|   2x
C#---------------------------------|
G#---------------------------------|
D#---------------------------------|


VERSE 1:
Verse riff 1:
D#----------------------|
A#----------------------|
F#-----------------2b---|  8x
C#----2-----------------|
G#----2-----------------|
D#----0-----------------|

Verse riff 2:
D#---------------------------|
A#---------------------------|
F#-----------------------7---|  4x
C#----2---2-2--2--2-2----7---|
G#----2---2-2--2--2-2----5---|
D#----0---0-0--0--0-0--------|


INTRO  2nd PART:


VERSE 2:
Same as verse 1

[ Tab from: http://www.guitaretab.com/a/alice-in-chains/364.html ]
CHORUS:
D#---------------------------|-------------------------|
A#---------------------------|-------------------------|
F#-----------------------9---|---------------------9---|
C#---10----9---5---4/2-2-9---|----8---8---8---9-2--9---|
G#---10----9---5---4/2-2-7---|----8---8---8---9-2--7---|
D#---8-----7---3---2/0-0-----|----6---6---6---7-0------|

D#--------------------------------|-------------------------|
A#--------------------------------|-------------------------|
F#----------------------------9---|---------------------9---|
C#----5--5--4--4--5-5---4/2--9---|----8---8---8---9-2--9---|
G#----5--5--4--4--5-5---4/2--7---|----8---8---8---9-2--7---|
D#----3--3--2--2--3-3---2/0------|----6---6---6---7-0------|

D#------------------|
A#------------------|
F#------------------|
C#----5-5-4-4-5-5---|
G#----5-5-4-4-5-5---|
D#----3-3-2-2-3-3---|


INTRO  2nd PART:


VERSE 3:
Verse riff 1  8x
Verse riff 2  8x


CHORUS:
Same as before


BRIDGE:
D#----------------------------------------------------|
A#----------------------------------------------------|
F#--------------5-5-5-5-5---------------9-9/7-7-7-7---|  2x
C#---2-2-2-2-2--5-5-5-5-5---2-2-2-2-2---9-9/7-7-7-7---|
G#---2-2-2-2-2--3-3-3-3-3---2-2-2-2-2---7-7/5-5-5-5---|
D#---0-0-0-0-0--------------0-0-0-0-0-----------------|


INTRO  2nd PART:


VERSE 3:
Verse riff 1  8x


OUTRO:
D#------10----11----12----12---|
A#---12----12----12----12------|
F#-----------------------------|  8x
C#-----------------------------|
G#-----------------------------|
D#-----------------------------|


INTRO  2nd PART  8x


D#-----------------------------------------------|
A#-----------------------------------------------|
F#-------------------5--5--5--6--6--6--7--7--7---|
C#---2--2-2--2-2-2---5--5--5--6--6--6--7--7--7---|
G#---2--2-2--2-2-2---3-3--3--4--4--4--5--5--5---|
D#---0--0-0--0-0-0-------------------------------|
Related for Head Creeps tab