Song name
# A B C D E F G H I J K L M N O P Q R S T U V W X Y Z

Alice In Chains - Voices tab

-----------------------------------------------------------------------------
          Alice In Chains - Voices - The Devil Put Dinosaurs Here
-----------------------------------------------------------------------------

Tabbed by: Ashley Power
E-mail: ashleypower@hotmail.com

Tuning: Half-step down

Just watch it played live; this is correct.

Just listen to the tune for strumming patern.


Verses:

e|------------------|
B|-3----------------|
G|-2--2-------------|
D|-0--2---2---1--1--|
A|----0---2---2--1--|
E|--------0---2--2--|


Chorus:

e|--------------|
B|--3-----------|
G|--2--2--------|
D|--0--2--2--1--|
A|-----0--2--2--|
E|--------0--2--|


After Chorus:

e|--------------|
B|--3-----------|
G|--0--------2--|
D|--0--2--1--2--|
A|--X--2--2--0--|
E|--3--0--2-----|


************************************
| /   slide up
| \   slide down
| H   hammer-on
| p   pull-off
| ~   vibrato
| +   harmonic
| x   Mute note
| ^   Bend
************************************
Tap to rate this tab
# A B C D E F G H I J K L M N O P Q R S T U V W X Y Z