Guitaretab - guitar tabs
Song name
# A B C D E F G H I J K L M N O P Q R S T U V W X Y Z

Alice In Chains - Them Bones tab

Them Bones
Alice In Chains
Tabbed by:reece goddard
Email:rtg42@blueyonder.co.uk
Tuning:DADGBe

Intro
        PM-----------------            PM------------  1st time   
e|---------------------------------|---------------------------------------|
B|---------------------------------|---------------------------------------|
G|--7------------------------------|-5~------------------------------------|
D|--7----0-0-1-1-1-1-2-2-2-3-p-0-0-|-5~---0-0-1-1-1-1-2-3-p-0-0------------|
A|--5----0-0-1-1-1-1-2-2-2-3-p-0-0-|-5~---0-0-1-1-1-1-2-3-p-0-0------------|
D|--0--0-0-0-1-1-1-1-2-2-2-3-p-0-0-|-0--0-0-0-1-1-1-1-2-3-p-0-0------------|
2nd time PM-----------    verse                  X8
e|------------------------|------------------------------------------------|
B|------------------------|--3---------------------------------------------|
G|--5~--------------------|--2---------------------------------------------|
D|--5~---1-1-1-1-2-2-2-3--|--0-----0----1----2----3------------------------|
A|--5~---1-1-1-1-2-2-2-3--|--------0----1----2----3------------------------|
D|--0--0-1-1-1-1-2-2-2-3--|--------0----1----2----3------------------------|
 Chorus
e|-------------------------------------------------------------------------|
B|-------------------------------------------------------------------------|
G|--------------------------------14---------------------------------------|
D|--8---8---8-8-8-7---7-----------14--10---10---10-10-10--9--9--9--8--8-8--|
A|--8---8---8-8-8-7---7-----14/16-----10---10---10-10-10--9--9--9--8--8-8--|
D|--8---8---8-8-8-7---7---7-----------10---10---10-10-10--9--9--9--8--8-8--|
 Solo   w/distortion and phaser
      PM--    PM--  PM-  PM-
e|-------------------------------------------------------------------------|
B|-------------------------------------------------------------6-----------|
G|---------------------------------------bu--------------------5-----------|
D|---3-------3-------5-----6-------5---3----(4)------------5/7---x-x-------|
A|-----5-5-5---5-5-5---5-5---5-5----------------5-3-5~~~-3-----------------|
D|-------------------------------------------------------------------------|
                         hold bend
e|-------------------------------------------------------------------------|
B|-----bu---------bu-----------------bd---------bu-----bd------------------|
G|---12---(14)--12---(14)---------------(12)--12---(14)---(12)p-10---------|
D|-----------------------------------------------------------------12~~----|
A|-------------------------------------------------------------------------|
D|-------------------------------------------------------------------------|
[ Tab from: http://www.guitaretab.com/a/alice-in-chains/386.html ]
e|-------------------------------------------------------------------------|
B|-------------------------------------------------------------------------|
G|--------------------------------------------------17-17-17~~~1514h15p14--|
D|-10-12-10---------------bu----bd---------14~~-14-----------------------15|
A|----------12-12\10p-8-10--(12)---(10)p-8---------------------------------|
D|-------------------------------------------------------------------------|
solo continued                                 Wide vib
e|-------------------------------------------------------------------------|
B|-----------------------------------------------------------bu------------|
G|--------------------------------------14h15p14~~~--14-15-17--(19)-17-15--|
D|--------------------------------14-15------------------------------------|
A|--16/17~~~-17-17----------15-17------------------------------------------|
D|-----------------15-17-19------------------------------------------------|
There's more
           Wide vib                      bu
e|---------------------------------|---15---(17)--15-13----13-----Bu-------|
B|------------------------bu-------|--------------------15----15-15-(17)---|
G|-17-15-14~~~~---12-14-14---(17)--|---------------------------------------|
D|---------------------------------|---------------------------------------|
A|---------------------------------|---------------------------------------|
D|---------------------------------|---------------------------------------|
                      bu
e|------------------20--(22)--20-18-17----17---bu--------------------------|
B|--bd---------------------------------20----20--(22)-20-18----18----------|
G|-----(15)-15~~~~------------------------------------------19----19~~~----|
D|-------------------------------------------------------------------------|
A|-------------------------------------------------------------------------|
D|-------------------------------------------------------------------------|

e|-------------------------------------------------------------------------|
B|--18h20p18----18h20p18-----18h20p18----18h20p18----18h20p18----20p18-----|
G|-----------19----------19-----------19----------19----------19-------19--|
D|-------------------------------------------------------------------------|
A|-------------------------------------------------------------------------|
D|-------------------------------------------------------------------------|
                                          Wide vib                w/ wah
e|-------------------bu----------------------------------------------------|
B|--18h20p18----18h20---(22)-20-18----18-----------------------------------|
G|-----------19--------------------19----19~~~------\-------------10/12----|
D|-------------------------------------------------------------------------|
A|-------------------------------------------------------------------------|
D|-------------------------------------------------------------------------|
         Grad.      Rp-----------------
e|-------------------------------------------------------------------------|
B|-------bu-----------------------------bd------------bu--bd---------------|
G|--[12]----(14)-------14-14-14-14-14-14---12p10----10--12--10-------------|
D|-----------------------------------------------12------------12-10-12-12-|
A|-------------------------------------------------------------------------|
D|-------------------------------------------------------------------------|

e|----------------------|
B|----------------------|
G|----------------------|
D|-12-12-10-10----------|
A|-------------12----\--|
D|----------------------|
 Outro                                                             X2
e|-------------------------------------------------------------------------|
B|-------------------------------------------------------------------------|
G|--------------------------------14---------------------------------------|
D|--8---8---8-8-8-7---7-----------14--10---10---10-10-10--9--9--9--8--8-8--|
A|--8---8---8-8-8-7---7-----14/16-----10---10---10-10-10--9--9--9--8--8-8--|
D|--8---8---8-8-8-7---7---7-----------10---10---10-10-10--9--9--9--8--8-8--|

e|-------------------------------------------------------------------------|
B|-------------------------------------------------------------------------|
G|--------------------------------14---------------------------------------|
D|--8---8---8-8-8-7---7-----------14--10--10-10-10--9--9--9--8---\---------|
A|--8---8---8-8-8-7---7-----14/16-----10--10-10-10--9--9--9--8---\---------|
D|--8---8---8-8-8-7---7---7-----------10--10-10-10--9--9--9--8---\---------|

Enjoy it took a long time hope you like it


| [  note affected by wah
| /  slide up
| \  slide down
| h  hammer-on
| p  pull-off
| ~  vibrato
| +  harmonic
| x  Mute note
============================================================================
Related for Them Bones tab