Alice In Chains - So Far Under chords

[Intro]
Eb|--------------|--------------|--------------|--------------|
Bb|--------------|--------------|--------------|--------------|
Gb|--9--9--9--9--|--9--9--9--9--|--9--9--9--9--|--9--9--9--9--|
Db|--8--8--8--8--|--8--8--8--8--|--8--8--8--8--|--8--8--8--8--|
Ab|--7--7--7--7--|--7--7--7--7--|--7--7--7--7--|--7--7--7--7--|
Eb|--0--0--0--0--|--0--0--0--0--|--0--0--0--0--|--0--0--0--0--|

Eb|--------------|----------------|--------------|
Bb|--------------|----------------|--------------|
Gb|--9--9--9--9--|--9--9--9-------|--------------|
Db|--8--8--8--8--|--8--8--8-------|--------------|
Ab|--7--7--7--7--|--7--7--7-------|--------7--9--|
Eb|--0--0--0--0--|--0--0--0--7-7--|--8--9--------|

Eb|--------------|----------------|--------------|
Bb|--------------|----------------|--------------|
Gb|--9--9--9--9--|--9--9--9-------|--------------|
Db|--8--8--8--8--|--8--8--8-------|--------------|
Ab|--7--7--7--7--|--7--7--7-------|--------7--9--|
Eb|--0--0--0--0--|--0--0--0--7-7--|--8--9--------|

Eb|--------------|----------------|--------------|
Bb|--------------|----------------|--------------|
Gb|--9--9--9--9--|--9--9--9-------|--------------|
Db|--8--8--8--8--|--8--8--8-------|--------------|
Ab|--7--7--7--7--|--7--7--7-------|--------7--9--|
Eb|--0--0--0--0--|--0--0--0--7-7--|--8--9--------|

Eb|--------------|----------------|--5/7--7-7--|
Bb|--------------|----------------|--6/8--8-8--|
Gb|--9--9--9--9--|--9--9--9-------|--5/7--7-7--|
Db|--8--8--8--8--|--8--8--8-------|------------|
Ab|--7--7--7--7--|--7--7--7-------|------------|
Eb|--0--0--0--0--|--0--0--0--7-7--|------------|

[Verse]
Eb|----------------|--------------|----------------|--5/7--7-7--|
Bb|----------------|--------------|----------------|--6/8--8-8--|
Gb|--9--9--9-------|--------------|--9--9--9-------|--5/7--7-7--|
Db|--8--8--8-------|--------------|--8--8--8-------|------------|
Ab|--7--7--7-------|--------7--9--|--7--7--7-------|------------|
Eb|--0--0--0--7-7--|--8--9--------|--0--0--0--7-7--|------------|

Eb|----------------|--------------|----------------|--5/7--7-7--|
Bb|----------------|--------------|----------------|--6/8--8-8--|
Gb|--9--9--9-------|--------------|--9--9--9-------|--5/7--7-7--|
Db|--8--8--8-------|--------------|--8--8--8-------|------------|
Ab|--7--7--7-------|--------7--9--|--7--7--7-------|------------|
Eb|--0--0--0--7-7--|--8--9--------|--0--0--0--7-7--|------------|

Eb|----------------|--------------|----------------|--5/7--7-7--|
Bb|----------------|--------------|----------------|--6/8--8-8--|
Gb|--9--9--9-------|--------------|--9--9--9-------|--5/7--7-7--|
Db|--8--8--8-------|--------------|--8--8--8-------|------------|
Ab|--7--7--7-------|--------7--9--|--7--7--7-------|------------|
Eb|--0--0--0--7-7--|--8--9--------|--0--0--0--7-7--|------------|

Eb|----------------|--------------|----------------|-------------|
Bb|----------------|--------------|----------------|-------------|
Gb|--9--9--9-------|--------------|--9--9--9-------|--107--7-7--|
Db|--8--8--8-------|--------------|--8--8--8-------|--107--7-7--|
Ab|--7--7--7-------|--------7--9--|--7--7--7-------|---85--5-5--|
Eb|--0--0--0--7-7--|--8--9--------|--0--0--0--7-7--|-------------|

[Chorus]
Eb|---------------|------------------|---------------|----------------|
Bb|---------------|------------------|---------------|----------------|
Gb|--8--8~--8--5--|------------------|--8--8~--8--5--|----------------|
Db|--8-~8~--8--5--|--5--5~------5-3--|--8-~8~--8--5--|--5--5~----5-3--|
Ab|--6--6~--6--3--|--5--5~------5-3--|--6--6~--6--3--|--5--5~----5-3--|
Eb|---------------|--3--3~--3-3-3-1--|---------------|--3--3~--3-3-1--|

Eb|---------------|------------------|---------------|
Bb|---------------|------------------|---------------|
Gb|--8--8~--8--5--|------------------|--8--8~--8-10--|
Db|--8-~8~--8--5--|--5--5~------5-3--|--8-~8~--8-10--|
Ab|--6--6~--6--3--|--5--5~------5-3--|--6--6~--6--8--|
Eb|---------------|--3--3~--3-3-3-1--|---------------|

Eb|--------------|----------------|--------------|
Bb|--------------|----------------|--------------|
Gb|--9--9--9--9--|--9--9--9-------|--------------|
Db|--8--8--8--8--|--8--8--8-------|--------------|
Ab|--7--7--7--7--|--7--7--7-------|--------7--9--|
Eb|--0--0--0--0--|--0--0--0--7-7--|--8--9--------|

Eb|--------------|----------------|--5/7--7-7--|
Bb|--------------|----------------|--6/8--8-8--|
Gb|--9--9--9--9--|--9--9--9-------|--5/7--7-7--|
Db|--8--8--8--8--|--8--8--8-------|------------|
Ab|--7--7--7--7--|--7--7--7-------|------------|
Eb|--0--0--0--0--|--0--0--0--7-7--|------------|

[Verse]
Eb|----------------|--------------|----------------|--5/7--7-7--|
Bb|----------------|--------------|----------------|--6/8--8-8--|
Gb|--9--9--9-------|--------------|--9--9--9-------|--5/7--7-7--|
Db|--8--8--8-------|--------------|--8--8--8-------|------------|
Ab|--7--7--7-------|--------7--9--|--7--7--7-------|------------|
Eb|--0--0--0--7-7--|--8--9--------|--0--0--0--7-7--|------------|

Eb|----------------|--------------|----------------|--5/7--7-7--|
Bb|----------------|--------------|----------------|--6/8--8-8--|
Gb|--9--9--9-------|--------------|--9--9--9-------|--5/7--7-7--|
Db|--8--8--8-------|--------------|--8--8--8-------|------------|
Ab|--7--7--7-------|--------7--9--|--7--7--7-------|------------|
Eb|--0--0--0--7-7--|--8--9--------|--0--0--0--7-7--|------------|

Eb|----------------|--------------|----------------|--5/7--7-7--|
Bb|----------------|--------------|----------------|--6/8--8-8--|
Gb|--9--9--9-------|--------------|--9--9--9-------|--5/7--7-7--|
Db|--8--8--8-------|--------------|--8--8--8-------|------------|
Ab|--7--7--7-------|--------7--9--|--7--7--7-------|------------|
Eb|--0--0--0--7-7--|--8--9--------|--0--0--0--7-7--|------------|

Eb|----------------|--------------|----------------|-------------|
Bb|----------------|--------------|----------------|-------------|
Gb|--9--9--9-------|--------------|--9--9--9-------|--107--7-7--|
Db|--8--8--8-------|--------------|--8--8--8-------|--107--7-7--|
Ab|--7--7--7-------|--------7--9--|--7--7--7-------|---85--5-5--|
Eb|--0--0--0--7-7--|--8--9--------|--0--0--0--7-7--|-------------|

[Chorus]
Eb|---------------|------------------|---------------|----------------|
Bb|---------------|------------------|---------------|----------------|
Gb|--8--8~--8--5--|------------------|--8--8~--8--5--|----------------|
Db|--8-~8~--8--5--|--5--5~------5-3--|--8-~8~--8--5--|--5--5~----5-3--|
Ab|--6--6~--6--3--|--5--5~------5-3--|--6--6~--6--3--|--5--5~----5-3--|
Eb|---------------|--3--3~--3-3-3-1--|---------------|--3--3~--3-3-1--|

Eb|---------------|------------------|-----------------|--------------|
Bb|---------------|------------------|-----------------|--------------|
Gb|--8--8~--8--5--|------------------|--8--8~--8-5-----|--8~--8-5-----|
Db|--8-~8~--8--5--|--5--5~------5-3--|--8-~8~--8-5--5--|--8~--8-5-5~--|
Ab|--6--6~--6--3--|--5--5~------5-3--|--6--6~--6-3--5--|--6~--6-3-5~--|
Eb|---------------|--3--3~--3-3-3-1--|--------------3--|----------3~--|

Eb|------------|--------------|----------|
Bb|------------|--------------|----------|
Gb|--8~~--3----|--8~--8-5-----|--8~--8~--|
Db|--8~~--3-5--|--8~--8-5-5~--|--8~--8~--|
Ab|--6~~--1-5--|--6~--6-3-5~--|--6~--6~--|
Eb|---------3--|----------3~--|----------|
   
   SOLO BREAK (Not Tabbed, Repeat Verse Riff Throughout, ends with)

Eb|--------------|--------------|--------------|-------|
Bb|--------------|--------------|--------------|-------|
Gb|--------------|--------------|--------------|--9~~--|
Db|--5-5~--7--9--|--5-5~--7--9--|--5-5~--7--9--|--9~~--|
Ab|--5-5~--7--9--|--5-5~--7--9--|--5-5~--7--9--|--7~~--|
Eb|--3-3~--5--7--|--3-3~--5--7--|--3-3~--5--7--|--0----|

[Interlude]
Eb|--------------|---------------|-------|-------|-------|----------------|
Bb|--------------|---------------|-------|-------|-------|----------------|
Gb|--8~~--8-5~~--|---------------|--8~~--|--8~~--|--5~~--|----------------|
Db|--8~~--8-5~~--|--5-/5~-5-4-3--|--8~~--|--8~~--|--5~~--|--/5-/5~-5-4-3--|
Ab|--6~~--6-3~~--|--5-/5~-5-4-3--|--6~~--|--6~~--|--3~~--|--/5-/5~-5-4-3--|
Eb|--------------|--3-/3~-3-2-1--|-------|-------|-------|--/3-/3~-3-2-1--|

Eb|-------|----------------|-------|---------------|
Bb|-------|----------------|-------|---------------|
Gb|--8~~--|----------------|--5~~--|---------------|
Db|--8~~--|--/5-/5~-5-4-3--|--5~~--|---------------|
Ab|--6~~--|--/5-/5~-5-4-3--|--3~~--|--1h3-1-1h3----|
Eb|-------|--/3-/3~-3-2-1--|-------|------------1--|

[Chorus]
Eb|---------------|------------------|---------------|----------------|
Bb|---------------|------------------|---------------|----------------|
Gb|--8--8~--8--5--|------------------|--8--8~--8--5--|----------------|
Db|--8-~8~--8--5--|--5--5~------5-3--|--8-~8~--8--5--|--5--5~----5-3--|
Ab|--6--6~--6--3--|--5--5~------5-3--|--6--6~--6--3--|--5--5~----5-3--|
Eb|---------------|--3--3~--3-3-3-1--|---------------|--3--3~--3-3-1--|

Eb|---------------|------------------|-----------------|--------------|
Bb|---------------|------------------|-----------------|--------------|
Gb|--8--8~--8--5--|------------------|--8--8~--8-5-----|--8~--8-5-----|
Db|--8-~8~--8--5--|--5--5~------5-3--|--8-~8~--8-5--5--|--8~--8-5-5~--|
Ab|--6--6~--6--3--|--5--5~------5-3--|--6--6~--6-3--5--|--6~--6-3-5~--|
Eb|---------------|--3--3~--3-3-3-1--|--------------3--|----------3~--|

Eb|--------------|--------------|----------|
Bb|--------------|--------------|----------|
Gb|--8~--8-5-----|--8~--8-5-----|--8~--5~--|
Db|--8~--8-5--5--|--8~--8-5-5~--|--8~--5~--|
Ab|--6~--6-3--5--|--6~--6-3-5~--|--6~--3~--|
Eb|-----------3--|----------3~--|----------|

Eb|----------------|-------|----------------|-------|
Bb|----------------|-------|----------------|-------|
Gb|----------------|--8~~--|----------------|--5~~--|
Db|--/5-/5~-5-4-3--|--8~~--|--/5-/5~-5-4-3--|--5~~--|
Ab|--/5-/5~-5-4-3--|--6~~--|--/5-/5~-5-4-3--|--3~~--|
Eb|--/3-/3~-3-2-1--|-------|--/3-/3~-3-2-1--|-------|

Eb|-------------------||
Bb|-------------------||
Gb|-------------------||
Db|-------------------||
Ab|--1h3-1-1h3--------||
Eb|------------1-3~~--||

*************************

/ = slide up
 = slide down
~ = vibrato
p.m. = palm muting

*************************

[Verse 1]
I'm a little alike
You before things had changed
In a compass, I ride
All this feels rearranged

[Chorus]
Tell me, does it matter
If I'm still here, or I'm gone?
Shifting to the after
An impostor, I'm not the one you know

[Verse 2]
I look the same outside
Nearly me even though
I carry something I hide
Underneath the one you know

[Chorus]
Tell me, does it matter
If I'm still here, or I'm gone?
Shifting to the after
An impostor, so disowned

Are you surprised black water flows
From wells run dry?
I'm not the one you know

[Interlude]

[Bridge]
Lay me out with our guilt
Watch the explosions fall, rain
Cannot live within this tilt
Carryin' over
I'm not the one you know

[Chorus]
Tell me, does it matter
If I'm still here, or I'm gone?
Shifting to the after
An impostor, so disowned

Are you surprised black water flows
From wells run dry?
I'm not the one you know
I'm not the one you know
Tap to rate this tab
 
# A B C D E F G H I J K L M N O P Q R S T U V W X Y Z