Guitaretab - guitar tabs
Song name
# A B C D E F G H I J K L M N O P Q R S T U V W X Y Z

Alice In Chains - Rooster Acoustic tab

tabed by:Michael Peach
song: rooster
album: unplugged
tuning: half step

This is probably the easiest a.i.c. tab there is.
I have played this song over and over and it is completly
correct.
verse:

e---2------0-0-0-0-0-----5------0-0-0-0-0----------
b---2------0-0-0-0-0-----5------0-0-0-0-0----------
g---3--3---3-3-3-3-3-----6--6---6-6-6-6-6----------
d---4--4---4-4-4-4-4-----7--7---7-7-7-7-7----------
a---4--4---4-4-4-4-4-----7--7---7-7-7-7-7----------
E---2--2---0-0-0-0-0-----5--5---0-0-0-0-0----------

part where he says "yeah here comes the rooster"

e--------------------------------------------------
b--------------------------------------------------
g--------------------------------------------------
d---9-9-9-9-9-9-9-9--12-12-12-12-12-12-12-12-------
a---9-9-9-9-9-9-9-9--12-12-12-12-12-12-12-12-------
E---7-7-7-7-7-7-7-7--10-10-10-10-10-10-10-10-------

e---0-2-2---0-2---2-2-2----------------------------
b---0-2-2---0-2---2-2-2----------------------------
g---3-3-3---3-3-4-3-3-3----------------------------
d---4-4-4---4-4-4-4-4-4----------------------------
a---4-4-4---4-4-2-4-4-4----------------------------
E---0-2-2---0-2---2-2-2----------------------------

then the part where he says "you know he aint gonna die"

e---0--2---2--2--2---------------------2-----------
b---0--2---2--2--2---------------------2-----------
g---1--3---3--3--3-------2-------------3-----------
d---2--4---4--4--4-------2-------------4-----------
a---2--4---4--4--4-------0--4-4-3-2-0--4-----------
E---0--2---2--2--2--0-0----------------2-----------

then the solo goes
[ Tab from: http://www.guitaretab.com/a/alice-in-chains/49319.html ]
e--------------------------------------------------
b--------------------------------------------------
g--------------------------------------------------
d--------------------------------------------------
a---2-1-2/4--4--2-1-/4--1--------------------------
E-------------------------2-0----------------------

e--------------------------------------------------
b-----------------5--------------------------------
g------------2-4b---4--242422----------------------
d---2----2-4---------------------------------------
a--------------------------------------------------
E--------------------------------------------------

e--------------------------------------------------
b--------------------------------------------------
g--------------------------------------------------
d--------------------------------------------------
a---2-1-2/4--4--2-1-/4--1--------------------------
E-------------------------2-0----------------------

e--------------------------------------------------
b---5--2-------------------------------------------
g--------4-2-4p2-2-------2-------------------------
d--------------------------------------------------
a--------------------------------------------------
E---------------------------0--0-------------------

e--------------------------------------------------
b--------------------------------------------------
g----------------------------------------9-----9---
d--------------------------------------------------
a---2-1-2/4--4/9--7--9--/11--9-7-7-9--7-----7------
E--------------------------------------------------

thats all. you should be able to put all of it together
Related for Rooster Acoustic tab
Rooster Acoustic chords by Alice In Chains