Song name
# A B C D E F G H I J K L M N O P Q R S T U V W X Y Z

Alice In Chains - Lying Season tab

Alice In Chains
Lying Season
Tabbed by: Flipdip14@hotmail.com

Tuning: half step down
Eb,Ab,Db,Gb,Bb,eb

Riff A:
eb:-|---------------------------------------------|-
Bb:-|---------------------------------------------|-
Gb:-|---------------------A.H.--------------------|-
Db:-|------------------[ 2h3p2 ]------------------|-
Ab:-|--4--4-4--4--4-4------------3p2p0------------|-
Eb:-|--2--2-2--2--2-2-----------------------------|-
          pm:     pm:

Riff B:
eb:-|---------------------------------------------|-
Bb:-|---------------------------------------------|-
Gb:-|---------------------A.H.--------------------|-
Db:-|--2--2-2--2--2-2--[ 2h3p2 ]------------------|-
Ab:-|--0--0-0--0--0-0------------3p2p0------------|-
Eb:-|---------------------------------------------|-
          pm:     pm:

Riff C:
eb:-|---------------------------------------------|-
Bb:-|---------------------------------------------|-
Gb:-|---------------------A.H.--------------------|-
Db:-|--4--4-4--4--4-4--[ 2h3p2 ]------------------|-
Ab:-|--2--2-2--2--2-2------------3p2p0------------|-
Eb:-|---------------------------------------------|-
          pm:     pm:

Riff D:
eb:-|----------------------------------------------------------------------|-
Bb:-|----------------------------------------------------------------------|-
Gb:-|-------------2--2-------------------------2--2------------------------|-
Db:-|-3--3-3-2-2--2--2--x-x--5-5-x-4--4-4--3-2-2--2--x-x-5-5-x-4--4-4------|-
Ab:-|-3--3-3-2-2--0--0--x-x--5-5-x-4--4-4--3-2-0--0--x-x-5-5-x-4--4-4------|-
Eb:-|-1--1-1-0-0--------x-x--3-3-x-2--2-2--1-0-------x-x-3-3-x-2--2-2------|-

eb:-|---------------------------------------------------|-
Bb:-|---------------------------------------------------|-
Gb:-|-----2--------------2--2------------------------2--|-
Db:-|-3-2-2--3--3-3-2-2--2--2-x-x-5-5-x-4--4-4---3-2-0--|-
Ab:-|-3-2-0--3--3-3-2-2--0--0-x-x-5-5-x-4--4-4---3-2-0--|-
Eb:-|-1-0----1--1-1-0-0-------x-x-3-3-x-2--2-2---1-0----|-

Song goes as follows:
Riff A: x2
Riff A: there's no reason
Riff A: to deny
Riff A: it's the season
Riff A: of the lie
Riff B: having someone
Riff C: grin at you
Riff A: look at little fingers
Riff A: pointing truth

Riff D is chorus - but it's kind of jammy so i've put the chords below lyrics for easier
interpretation

Man  it's a  weight on my mi__________nd
F5   F5   F5 E5     E5 A5 A5 xx G5 G5 x F5 F5 F5
And that's fi_____________ne
F5  E5     A5 A5 xx G5 G5 x F5 F5 F5
But now we  wade past the point of decli__________ne
F5  E5  A5  F5   F5   F5  E5    E5 A5 A5 xx G5 G5 x F5 F5 F5
There's no ti_____________me
F5      E5 A5 A5 xx G5 G5 x F5 F5 F5

F5 E5 A5

there you go, also it's maybe in dropped d but i did this rather quickly so there could
be errors
yes, all this repeats with other lyrics, and the solo backing is just normal verse
riff progression
Tap to rate this tab
# A B C D E F G H I J K L M N O P Q R S T U V W X Y Z