Song name
# A B C D E F G H I J K L M N O P Q R S T U V W X Y Z

Alice In Chains - No Excuses Acoustic tab

----------------------------------------------------------------------------
		 No Excuses(acoustic) - Alice in Chains
----------------------------------------------------------------------------
Tabbed by:Brack

Tuning:Down 1/2 a step

eb|---0-------0------0-------0------------------------------------------------|
Bb|---0/------0------0-------0-----0----0-----0--0--0-------------------------|
Gb|---6/8-----8------8-------8-----8----8-----6--6--6-------------------------|
Db|---7/9-----9---9--9---9---9-----9----9-----7--7--7-------------------------|
Ab|---7/9-----9---9------9--------------------7--7--7-------------------------|
Eb|---5/7-----7---7------7------7-----7-----5----5--5-------------------------|

During chorus guitar one plays these chords: G6, Aadd9, Badd11, Aadd9, G6, Aadd9, E 
guitar two does this


e|---------------2------------------------------------2---2h3p2p0-----------|
B|-----0----0---------0---2B1/2--0---0----0----0-0-----------------3B1/2--0-|
G|---2----2---2-----2---2----------2----2----2-----2------------------------|
D|--------------------------------------------------------------------------|
A|--------------------------------------------------------------------------|
E|--------------------------------------------------------------------------|

Solo
e|--10p7------7---------------------10p7------7-----------------------------|
B|--------10----10------------------------10-----10-------------------------|
G|------------------9b-9-7---7--7--------------------7-7--(7)B-7--7---------|
D|--------------------------------------------------------------------------|
A|--------------------------------------------------------------------------|
E|--------------------------------------------------------------------------|

e|------------------------------------------------------7----7----7---------|
B|--------------------------10--10-10--10-10-10b-10b-10---10---10---10------|
G|-7-7h9-9-9b---9b---9--7---------------------------------------------------|
D|--------------------------------------------------------------------------|
A|--------------------------------------------------------------------------|
E|--------------------------------------------------------------------------|
Tap to rate this tab
 
# A B C D E F G H I J K L M N O P Q R S T U V W X Y Z