Song name
# A B C D E F G H I J K L M N O P Q R S T U V W X Y Z

Alice Nine - Ruri No Ame tab

Song: Ruri No Ame
Band: Alice Nine.
tabbed by: .tsubasa. (ako_si_camille26@yahoo.com)


(Intro and solo only....)

Intro:
------------------------------------------------------|
------------------------------------------------------|
----------->10~~--12-10--8-7>8-8-8>10-10~~------------|
->5-7-8-5----------------------------------8>7 7>8----|
------------------------------------------------------|
------------------------------------------------------|


------------------------------------------------------|
------------------------------------------------------|
------------------------------------------------------|
----->12 (10-12-10)----------12--10-->15--12~~--------|
->10-----------------10>8>10--------------------------|
------------------------------------------------------|

Solo:

------------------------------------------------------|
------------------------------------------------------|
----------------------------------15-14-10------------|
->15~~-15-13-12-12>13-13-13>15------------------------|
------------------------------------------------------|
------------------------------------------------------|

------------------------------------------------------|
------------------------------------------------------|
------------------------------------------------------|
8-8>12--15-12-15-11~full-8~-7--87------------1012-----|
----------------------------------8(10)--1013---------|
------------------------------------------------------|

--------------------------------8-10---6-10-10>18-17--------------|
---------------------------8-11------8---------------18-18~full---|
-10-7----------------7-10-----------------------------------------|
------10-8------8-10----------------------------------------------|
-------------10---------------------------------------------------|
------------------------------------------------------------------|


-end-
any comments? e-mail me: ako_si_camille26@yahoo.com
or add my friendster.♥ profiles.friendster.com/jrockmaster
domo arigatou..
Tap to rate this tab
# A B C D E F G H I J K L M N O P Q R S T U V W X Y Z