Guitaretab - guitar tabs
Song name
# A B C D E F G H I J K L M N O P Q R S T U V W X Y Z

Alice Nine - Kousai tab

Alice Nine - Kousai (intro)

E --------------------|
B -2---2-4-----4------|
G ---1-----3-1---3----|
D --------------------|
A --------------------|
E --------------------|

E --------------------|
B -----1-4---4--------|
G -3-1-----3---3-1----|
D --------------------|
A --------------------|
E --------------------|

E --------------------|
B -2---2-4-----4----1-|
G ---1-----3-1---3--1-|
D ------------------1-|
A --------------------|
E --------------------|
[ Tab from: http://www.guitaretab.com/a/alice-nine/114829.html ]
______________________

3x
E --------------------|
B -2---2-4-----4------|
G ---1-----3-1---3----|
D --------------------|
A --------------------|
E --------------------|

E --------------------|
B -----1-4---4--------|
G -3-1-----3---3-1----|
D --------------------|
A --------------------|
E --------------------|
______________________

E --------------------|
B -2---2-4-----4----1-|
G ---1-----3-1---3--1-|
D ------------------1-|
A --------------------|
E --------------------|

tabs by Kvicka
Related for Kousai tab