Song name
# A B C D E F G H I J K L M N O P Q R S T U V W X Y Z

Alice Nine - Cosmic World tab

Cosmic world intro 

Heres the intro to cosmic world... Enjoy!!

h20_bubbli@hotmail.co.uk

sounds right to me
tell me if anything is wrong and ill ask my guitar teacher

i think tuning is standard

E|-----------------------2------2-------------------------------------------|
B|----2--------4-----0------------------------------------------------------|
G|-----------4--------------------------------------------------------------| 
D|--------------------------------------------------------------------------|
A|--2---2--0----------------------------------------------------------------|
E|----------------0---------0-----0-----------------------------------------|

X2 on the second time dont play the last note (open E)


Play this bit and then repeat at E5 (sorry i dont have lyrics)

B -> B/A -> E5+9 -> G#M -> F#7 ->E5+9

           B
e ---|-x-|---|---|---|
B ---|---|---|-x-|---|
G ---|---|---|-x-|---|
D ---|---|---|-x-|---|
A ---|-x-|---|---|---|
E ---|---|---|---|---|x
          B/A
e ---|---|---|---|---|o
B ---|---|---|-x-|---|
G ---|---|---|-x-|---|
D ---|-x-|---|---|---|
A ---|---|---|---|---|o
E ---|---|---|---|---|x

          E5 add 9
e ---|-x-|---|---|---|
B ---|---|---|---|-x-|
G ---|---|---|-x-|---|
D ---|---|---|---|---|
A ---|-x-|---|---|---|
E ---|---|---|---|---|o

           G#M
       4
e ---|-x-|---|---|---|
B ---|---|---|---|---|
G ---|---|---|---|---|
D ---|---|---|-x-|---|
A ---|---|---|-x-|---|
E ---|-x-|---|---|---|
 
          F#7
       2
e ---|-x-|---|---|---|
B ---|---|---|---|-x-|
G ---|---|-x-|---|---|
D ---|---|---|---|---|
A ---|---|---|-x-|---|
E ---|-x-|---|---|---|

Tap to rate this tab
# A B C D E F G H I J K L M N O P Q R S T U V W X Y Z