Song name
# A B C D E F G H I J K L M N O P Q R S T U V W X Y Z

Alice Nine - Subete E tab

-----------------------------------------------------------------
 Subete E - Alice Nine
-----------------------------------------------------------------
Tabbed by: Charlotte Fennell
Email: charliecure87@aol.com

Tuning: Drop D

This tab probably isn't perfect, but it sounds OK to me ;D Sorry, I haven't 
figured out the solos yet, I may edit it when I get a chance.

1:18:

e|---------------------------------------------------------------|
B|---------------------------------------------------------------|
G|---------------------------------------------------------------|
D|-7-/-12-\-12--4--9--7--5--6--7--7--12--4--9--7--5--7-----------|
A|-7-/-12-\-12--4--9--7--5--6--7--7--12--4--9--7--5--7-----------|
E|-7-/-12-\-12--4--9--7--5--6--7--7--12--4--9--7--5--7-----------|

1:42:

e|---------------------------------------------------------------|
B|---------------------------------------------------------------|
G|---------------------------------------------------------------|
D|-12---------12-12---------12-14----------14--16-16-17-16-------|
A|-12---------12-12---------12-14----------14--16-16-17-16-------|
E|-12---------12-12---------12-14----------14--16-16-17-16-------|
      PM .....      PM .....      PM .....

e|---------------------------------------------------------------|
B|---------------------------------------------------------------|
G|---------------------------------------------------------------| x2
D|-11---------11-12---------12-14----------14--16-16-17-16-------|
A|-11---------11-12---------12-14----------14--16-16-17-16-------|
E|-11---------11-12---------12-14----------14--16-16-17-16-------|
      PM .....      PM .....      PM .....

e|---------------------------------------------------------------|
B|---------------------------------------------------------------|
G|---------------------------------------------------------------|
D|-11---------11-12---------12-14----------14--------------------|
A|-11---------11-12---------12-14----------14--------------------|
E|-11---------11-12---------12-14----------14--16-16-17-16-------|
      PM .....      PM .....      PM .....

Verse (2:03):

e|---------------------------------------------------------------|
B|---------------------------------------------------------------|
G|---------------------------------------------------------------|
D|-12----------12-12----------12-12----------12-12--12-12--------|
A|-12----------12-12----------12-12----------12-12--12-12--------|
E|-12----------12-12----------12-12----------12-12--12-12--------|
      PM .....       PM .....       PM ..... 

e|---------------------------------------------------------------|
B|---------------------------------------------------------------|
G|---------------------------------------------------------------|
D|-9-----------9-9------------9-9------------9-9--9-9------------|
A|-9-----------9-9------------9-9------------9-9--9-9------------|
E|-9-----------9-9------------9-9------------9-9--9-9------------|
      PM .....       PM .....       PM ..... 

e|---------------------------------------------------------------|
B|---------------------------------------------------------------|
G|---------------------------------------------------------------|
D|-0-----------0-0------------0-0------------0-0--0-0------------|
A|-0-----------0-0------------0-0------------0-0--0-0------------|
E|-0-----------0-0------------0-0------------0-0--0-0------------|
      PM .....       PM .....       PM ..... 

e|---------------------------------------------------------------|
B|---------------------------------------------------------------|
G|---------------------------------------------------------------|
D|-9-----------9-9------------9-9------------9-9--9-9--7-5-------|
A|-9-----------9-9------------9-9------------9-9--9-9--7-5-------|
E|-9-----------9-9------------9-9------------9-9--9-9--7-5-------|
      PM .....       PM .....       PM ..... 

Pre-Chorus (2:24):

e|---------------------------------------------------------------|
B|---------------------------------------------------------------|
G|---------------------------------------------------------------|
D|--5--4--2--7---------------------------------------------------|
A|--5--4--2--7---------------------------------------------------|
E|--5--4--2--7---------------------------------------------------|

Chorus (2:33):

e|---------------------------------------------------------------|
B|---------------------------------------------------------------|
G|---------------------------------------------------------------|
D|--12--4--9--4--5--4--2--7--5--7--9-7-5--5--7--0--0-------------|
A|--12--4--9--4--5--4--2--7--5--7--9-7-5--5--7--0--0-------------|
E|--12--4--9--4--5--4--2--7--5--7--9-7-5--5--7--0--0-------------|

Post-Chorus (3:05):

e|---------------------------------------------------------------|
B|---------------------------------------------------------------|
G|---------------------------------------------------------------|
D|--12\-5----------6----------7----------4----------4------------|
A|--12\-5----------6----------7----------4----------4------------|
E|--12\-5----------6----------7----------4----------4------------|
          PM .....   PM .....   PM .....   PM .....

3:16:

e|---------------------------------------------------------------|
B|---------------------------------------------------------------|
G|---------------------------------------------------------------| x2
D|-11---------11-12---------12-14----------14--16-16-17-16-------|
A|-11---------11-12---------12-14----------14--16-16-17-16-------|
E|-11---------11-12---------12-14----------14--16-16-17-16-------|
      PM .....      PM .....      PM .....

3:26:

e|---------------------------------------------------------------|
B|---------------------------------------------------------------|
G|---------------------------------------------------------------|
D|---------------------------------------------------------------|
A|----------------0-2-0-2-4-5-5----(x8)--------------------------|
E|--0-4-5-0-5-7-0------------------------------------------------|

3:48:

e|---------------------------------------------------------------|
B|---------------------------------------------------------------|
G|---------------------------------------------------------------|
D|--5--4--2--7---------------------------------------------------|
A|--5--4--2--7----(x2)-------------------------------------------|
E|--5--4--2--7---------------------------------------------------|

Chorus (4:09):

e|---------------------------------------------------------------|
B|---------------------------------------------------------------|
G|---------------------------------------------------------------|
D|-12--4--9--9-9-7-5--4--2--7--5--7--9-7-5--2-7-9--5--7--9--5--7-|
A|-12--4--9--9-9-7-5--4--2--7--5--7--9-7-5--2-7-9--5--7--9--5--7-|
E|-12--4--9--9-9-7-5--4--2--7--5--7--9-7-5--2-7-9--5--7--9--5--7-|

Outro (4:40):

e|---------------------------------------------------------------|
B|---------------------------------------------------------------|
G|---------------------------------------------------------------|
D|--12--4--9--7--5--6--7---12--4--9--7--5--7---12--4--9--7--5--6-|
A|--12--4--9--7--5--6--7---12--4--9--7--5--7---12--4--9--7--5--6-|
E|--12--4--9--7--5--6--7---12--4--9--7--5--7---12--4--9--7--5--6-|

e|---------------------------------------------------------------|
B|---------------------------------------------------------------|
G|---------------------------------------------------------------|
D|--7---12--4--9--7--5--7--12------------------------------------|
A|--7---12--4--9--7--5--7--12------------------------------------|
E|--7---12--4--9--7--5--7--12------------------------------------|

5:31:

e|---------------------------------------------------------------|
B|-------3-------------------------------------------------------|
G|-------2----(x8)-----------------------------------------------|
D|--12\--0-------------------------------------------------------|
A|--12\--0-------------------------------------------------------|
E|--12\----------------------------------------------------------|

| /  slide up
| \  slide down
| h  hammer-on
| p  pull-off
| ~  vibrato
| +  harmonic
| x  Mute note
Tap to rate this tab
# A B C D E F G H I J K L M N O P Q R S T U V W X Y Z