Song name
# A B C D E F G H I J K L M N O P Q R S T U V W X Y Z

Alicia Keys - Another Way To Die tab

Highlighted       Show chord diagrams
Artist: Jack White and Alicia Keys
Song: Another Way to Die
Album: Quantum of Solace Soundtrack

When I originally submitted the tab under "Jack White" or "Jack White & Alicia Keys" the 
was rejected. So I had no choice to label it under Alicia Keys.

E5: 02xxxx  or 0x2xxx
B5: x24xxx     7x9xxx
G5: 35xxxx     3x5xxx
A5: x02xxx     5x7xxx


Intro:                                 E5
e|--------------------------------------------------|
B|--------------------------------------------------|
G|--------------------------------------------------|
D|--------------------------------------------------|  x3
A|---------------5~-------------7~~----777777-------|
E|--0--2b3b2--0-----0--2b3b2-0---------000000-------|

  Piano                        Guitar Riff B
e|--7--7--7--7--7--7-------| e|-------------------------|
B|-------------------------| B|-------------------------|
G|-------------------------| G|-------------------------|
D|-------------------------| D|-------------------------|
A|---------------~---------| A|-------------------------|
E|---------------~---------| E|--2-3-5-2-3-5-0~---------|

Guitar Riff A:
e|-----------------|
B|-----------------|
G|-----------------|
D|-----------------| x4
A|-----------------|
E|----0-3--0-------|

B5 G5 E5 x2

Piano fill:
e|------5-4---------------|
B|----3-----5-------------|
G|--4---------5--4--------|
D|------------------------|
A|------------------------|
E|------------------------|

Verse:
e|------------------------------|
B|------------------------------|
G|------------------------------|
D|----4-------------------------|
A|----2--------5--------2-------|
E|-------------3--------0-------|

B5                      G5                           E5
Another ringer with the slick trigger finger for her majesty
B5                   G5                                E5
Another one with the golden tongue voice and then your fantasy
B5                  G5                            E5
Another bill from a killer turned a thrill into a tragedy, yeah

Chorus:
e|-------------------------------------------|
B|-------------------------------------------|
G|-------------------------------------------|
D|----4-4------------------------------------|
A|----2-2------5-5------7-7------7-7--7-7----|
E|-------------3-3------5-5------5-5--5-5----|

            B5                    G5
A door left open, A woman walking by
              A5                    A5
A drop in the water, A look in your eye
  A5           B5                   G5
A phone on the table, A man on your side
                    A5
Or someone that you think that you can trust
   A5    A5            E5
Is just another way to die

Guitar Riff A x2
B5 G5 E5 (Piano fill)
B5 G5 E5
Guitar Riff A x2

B5                    G5                       E5
Another tricky little gun giving solace to the one

That will never see the sunshine
B5                   G5                       E5
Another inch of your life sacrificed for your brother, in the nick of time
B5                  G5                        E5
Another dirty money heaven sent honey turning on a dime, well

Chorus

Piano riff:
e|------3-2---------5-4---------------|
B|----3-----3-2---3-----5-------------|
G|--4-----------4---------5--4--------|
D|------------------------------------|
A|------------------------------------|
E|------------------------------------|

Hey, you got the feelin', yeah

e|--------------------------------------------------|
B|--------------------------------------------------|
G|--------------------------------------------------|
D|--7-7-7-7-----------------5-4---------------------|
A|-----------------------5------5--7-7-7-7----------|
E|----------5-5-5-5---7--------------------0-0-0-0--|

e|----------------------------------------------------------------|
B|----------------------------------------------------------------|
G|----------------------------------------------------------------|
D|--------5--4-----7-7-7-7----------------5-4---------------------| x3
A|-----5--------5----------------------5------5--7-7-7-7----------|
E|--7---------------------5-5-5-5---7--------------------0-0-0-0--|

Another baby
Oh oh oh oh oh x4

e|----------------------------------------------------------|
B|----------------------------------------------------------|
G|----------------------------------------------------------|
D|--------5--4-----7-7-7-7----------------5-4---------------|
A|-----5--------5----------------------5------5--7~~--------|
E|--7---------------------5-5-5-5---7------------0~~--------|

Riff x2
B5 G5 E5 x2

Guitar Solo:
e|---11b12b11------------------------------------------------|
B|-----------12----------x11b12---x11b12---------------------|
G|-----------------------------------------------------------|
D|-----------------------------------------------------------|
A|-----------------------------------------------------------|
E|-----------------------------------------------------------|

e|-----------------------------------------------------------|
B|----x11b12-------------------------------------------------|
G|-----------------------------------------------------------|
D|-----------------------------------------------------------|
A|-----------------------11-11-11-11-----------11-11-11-11v--|
E|--------------------12-------------12-----12---------------|

B5                    G5                          E5
Another girl with her finger on the world singing to you what you want to hear
B5                 G5                      E5
Another gun thrown down in surrender took away your fear
B5               G5                              E5
Another man that stands right behind you looking in the mirror

Chorus

Sort 'em out baby!

Intro x8
Guitar riff B
Guitar riff A x2
Tap to rate this tab
 
# A B C D E F G H I J K L M N O P Q R S T U V W X Y Z