Song name
# A B C D E F G H I J K L M N O P Q R S T U V W X Y Z

Alicia Keys - Unbreakable tab

 
Artist: Alicia Keys
Song: Unbreakable
Tabbed by: carlos Ramirez
Tuning: EADGBe


INTRO:
e|--------------------------------|   ----------------------------|
B|--------------------------------|   ----------------------------|
D|--------------------------------|(2)----------------------------|
G|-----9---9---9-------6---7---8--|   ---9--9---9--11-------------|
A|--------------------------------|   ----------------------------|
E|--7----7---7-------4---5---6----|   -7--7-----7---9-------------|

The rest of the song is played like this..

e|------------------4---4----4---4--4---|
B|------------------2---7----5---4--4---|
D|------------------2---5----4---3--3---| 
G|----6---7---------4---4----6---2--2---|
A|------------------2---6----4---x--x---|
E|-4----5-----6---------4--------2--2---|
Tap to rate this tab
 
# A B C D E F G H I J K L M N O P Q R S T U V W X Y Z