Song name
# A B C D E F G H I J K L M N O P Q R S T U V W X Y Z

Alicia Keys - Diary tab

-------------------------------------------------------------------------------
			     SONG NAME - Band Name
-------------------------------------------------------------------------------
Tabbed by: mArk dAeniEl
Email: myspace.com/markdanielx

Tuning:

e|------------0------------------------|
B|---1-----3--3p0-3-1------------------|
G|------2-------------2--2/4----0---2--|
D|-----2----------------------------0--|
A|---0---------------------------------|
E|-----------------------0-------------|

e|------------0------------------------|
B|---1-----3--3p0-3-1------------------|
G|------2-------------2--2/4-------5---|
D|-----2---------------------------3---|
A|---0---------------------------------|
E|-----------------------0-------------|

e|------------0------------------------|
B|---1-----3--3p0-3-1------------------|
G|------2-------------2--2/4----0---2--|
D|-----2----------------------------0--|
A|---0---------------------------------|
E|-----------------------0-------------|


e|-------------------------------------|
B|----3--0----------3-0-3-4-1----------|
G|-------------------------------------|
D|--------------------------3----------|
A|-------------------------------------|
E|-------0-----------------------------|

e|-------4h6-6/8---4-------------------|
B|---4h6---------------6---4---1-------|
G|---------------------------------1---|
D|-------------------------------------|
A|-------------------------------------|
E|-------------------------------------|


| /  slide up
| \  slide down
| h  hammer-on
| p  pull-off
| ~  vibrato
| +  harmonic
| x  Mute note
===============================================================================
Tap to rate this tab
 
# A B C D E F G H I J K L M N O P Q R S T U V W X Y Z