Song name
# A B C D E F G H I J K L M N O P Q R S T U V W X Y Z

Alicia Keys - Doesnt Mean Anything tab

Beautiful Song.

E|---------7-------------7--------------|
B|--------------10-9-9-------10-10-9----|
G|--------------------------------------|
D|--------------------------------------|
A|-------7---7---------7---7------------|
E|--------------------------------------|

E|---------7---5-4-4---7---5-5-4--------|
B|--------------------------------------|
G|--------------------------------------|
D|--------------------------------------|
A|-------4---4-------4---4--------------|
E|--------------------------------------|

E|---------7---5-4---5-4-2--------------|
B|---------------5---------5------------|
G|--------------------------------------|
D|--------------------------------------|
A|--------------------------------------|
E|-------5---5--------------------------|

E|---------7-------------7--------------|
B|--------------10-9-9-------10-10-9----|
G|--------------------------------------|
D|--------------------------------------|
A|-------7---7---------7---7------------|
E|--------------------------------------|
Tap to rate this tab
# A B C D E F G H I J K L M N O P Q R S T U V W X Y Z