Song name
# A B C D E F G H I J K L M N O P Q R S T U V W X Y Z

Alien Ant Farm - Whisper tab

Alien Ant Farm - Whisper
from: Anthology
tabbed by jjhand

Eb tuning
Intro
eb|----------------------------------------------------------------------|
Bb|----------------------------------------------------------------------|
Gb|---------------------------------------------------------6-6--10-10---|
Db|-6-7-6---6-6--6-6--6-7-6---6-6--6-6--6-7-6---6-6--6-6--6-6-6--10-10---|
Ab|-0-0-0---0-0--0-0--0-0-0---0-0--0-0--0-0-0---0-0--0-0--0-4-4--8--8----|
Eb|----------------------------------------------------------------------|

Verse	   PM_(first time)___________| 	       PM(also)__| *First time
eb|----------------------------------------------------------------------|
Bb|----------------------------------------------------------------------|
Gb|-------------------------------------------------------------2-2------|
Db|-4-7-6---6-6--6-6--6-6-6---6-6--6-6--4-7-6---6-6--6-6--6-3-3-0-0------|
Ab|-4-7-6---6-6--6-6--6-6-6---6-6--6-6--4-7-6---6-6--6-6--6-3-3-0-0------|
Eb|-2-5-4---4-4--4-4--4-4-4---4-4--4-4--2-5-4---4-4--4-4--4-1-1----------|

End Verse			Chorus			       *first time
eb|--------------------------||---------------------------------|--------|
Bb|--------------------------||---------------------------------|--------|
Gb|---------------------5-5--||-10-7-10--9--7-6-----------2-----|--6----o|
Db|-6-7-8---8-8--8-8--8-5-5--||-----------------8-7----3--0--2--7-------o|
Ab|-6-7-8---8-8--8-8--8-3-3--||--8-5--8--7--5-4--------3--0--2--7--------|
Eb|-4-5-6---6-6--6-6--6-3-3--||-----------------6-5----1-----0--5--------|
				Tremelo pick

		    2nd Chorus end    Bridge			    repeat these 
eb|----------------|---------------|-----4-----1-----0--------|--------------------|
Bb|----------------|---------------|---4-----1-----0-------3--|--------------------|
Gb|-2-2-2-2-2-2-x--|-2-2-2-2-2-2-2-|---------------------2---o|---7-7-7-6-6-6------|
Db|-2-2-2-2-2-2-x--|-3-3-3-3-3-3-3-|--6-6---3-3---2-2---0-0--o|---------------6-7-6|
Ab|-0-0-0-0-0-0-x--|-0-0-0-0-0-0-0-|--------------------------|-5-5-5-5-5-5-5-0-0-0|
Eb|----------------|---------------|--------------------------|--------------------|
Tap to rate this tab
 
# A B C D E F G H I J K L M N O P Q R S T U V W X Y Z