Song name
# A B C D E F G H I J K L M N O P Q R S T U V W X Y Z

Alien Ant Farm - Words tab

Help us improve GuitareTab! Take a short survey!
Alien Ant Farm
Words
truANT(bonus track)

Tuning:Standard


Intro..strumming not shown
e|-------------------------------------------------------------------------|
B|-------------------------------------------------------------------------|
G|-4---3-------------------------------------------------------------------|
D|-2---2---4---5-----------------------------------------------------------|
A|-x---x---1---2-----------------------------------------------------------|
E|-3---3---2---3-----------------------------------------------------------|

Verse....strumming is up/down pm and release pm when needed
e|-------------------------------------------------------------------------|
B|-------------------------------------------------------------------------|
G|-4---3-------------------------------------------------------------------|
D|-2---2-------------------------------------------------------------------|
A|-x---x-------------------------------------------------------------------|
E|-3---3-------------------------------------------------------------------|

Small parts in intro..use second one before chorus and end of song
e|-------------------------------------------------------------------------|
B|-------------------------------------------------------------------------|
G|-------------------------------------------------------------------------|
D|-5-5-5-5-4-4-4-2-2-2-0---------------5-5-5-4-4-4-0-2-4-2-0-0-------------|
A|-------------------------------------------------------------------------|
E|-------------------------------------------------------------------------|

e|-------------------------------------------------------------------------|
B|-------------------------------------------------------------------------|
G|-4---3-------------------------------------------------------------------|
D|-2---2---4---5-----------------------------------------------------------|
A|-x---x---1---2---4-4-----------------------------------------------------|
E|-3---3---2---3---5-5-----------------------------------------------------|
                   PM

End chorus part.."Words to believe..."
e|-------------------------------------------------------------------------|
B|-------------------------------------------------------------------------|
G|-----------------------4----------6--------------------------------------|
D|-2-------------------4----------4----------------------------------------|
A|-2----2-----------2-----------4------------------------------------------|
E|-0----3---------3-----------5--------------------------------------------|


2nd verse variation
e|-------------------------------------------------------------------------|
B|-------------------------------------------------------------------------|
G|---------4-4---------4-4---------3-3---------3-3-------------------------|
D|-----2-2---------2-2---------2-2---------2-2-----------------------------|
A|-2-2---------2-2---------1-1---------1-1-----------2---------------------|
E|---------------------------------------------------3-|3-4-5-5-6harmonics-|


Bridge..this is the album version but you can play it the live way on the E and A strings
e|-------------------------------------------------------------------------|
B|-------------------------------------------------------------------------|
G|-7-4-7-9-9b-7-6-7-9-9b-7-4--7-9-9b-7-/9-7-9-11-9-11-12\------------------|
D|-7-4-7-9-9b-7-6-7-9-9b-7-4b-7-9-9b-7-------------------------------------|
A|-------------------------------------------------------------------------|
E|-------------------------------------------------------------------------|
  Leading into and to "smoking and drinking" 
e|-------------------------------------------------------------------------|
B|-------------------------------0-----------------------------------------|
G|-------------------------------0-----------------------------------------|
D|-/14-12-11----------------7-9-11-----------------------------------------|
A|---x--x-x---------7-9-7-9------------------------------------------------|
E|-/12-10-9-----7-9----------------\---------------------------------------|
               -----PM---------


| /  slide up
| \  slide down
| h  hammer-on
| p  pull-off
| ~  vibrato
| +  harmonic
| x  Mute note
Related for Words tab