Song name
# A B C D E F G H I J K L M N O P Q R S T U V W X Y Z

Alien Ant Farm - San Sebastian tab

Intro/verse:

you can play palm muted if you would like to
|---------------------------------------------------------------|
|---------------------------------------------------------------|
|---------------------------------------------------------------| X15
|---9--9--9--6--6--11--11--9--7-5-7-5-7-5-7-5-------------------|
|---9--9--9--6--6--11--11--9--7-5-7-5-7-5-7-5-------------------|
|---7--7--7--4--4--9---9---7--5-5-5-5-5-5-5-5-------------------|
                                     ^not sure about this part

solo: (intro guitar continues to play)

|---------------------------------------------------------------|
|---------------------------------------------------------------|
|---------------------------------------------------------------|
|---17/18\17-17\15-15-15/17-17\15-15\14-14\12\11-11/12----------|
|---------------------------------------------------------------|
|---------------------------------------------------------------|

Chorus:

pt. 1

|------------------------------------------|
|------------------------------------------|
|--9--9--9--6--6--11-11-9------------------|
|--9--9--9--6--6--11-11-9-7-5-7-5-7-5-7-5--|X2
|--7--7--7--4--4--9--9--7------------------|
|------------------------------------------|

pt.2

|------------------------------------------|
|------------------------------------------|
|--9--9--9--6--6--11-11-9-9-7-9-7-9-7-9-7--|
|--9--9--9--6--6--11-11-9------------------|X1 then play pt.1 once more
|--7--7--7--4--4--9--9--7------------------|
|------------------------------------------|

part after chorus: sorry haven't figured it out yet

cool guitar lick:

|-------------------------------------------------|
|-------------------------------------------------|
|--21--21-21-21-21-21-21-21-20-18-16-13~---11-13--|
|-------------------------------------------------|X2
|-------------------------------------------------|
|-------------------------------------------------|


and thats pretty much all you need to know in order to play the song (excluding that 
part haha)
Tap to rate this tab
 
# A B C D E F G H I J K L M N O P Q R S T U V W X Y Z