Song name
# A B C D E F G H I J K L M N O P Q R S T U V W X Y Z

Alien Ant Farm - Universe tab

Tabbed by: djdavid@ucdavis.edu

first tab, but forgive me im a drummer and i needed the correct rhythm or it'd piss the hella out of me.

here it goes.. (everything except the harmonics part)

intro/verse
|----------------|----------------|----------------|----------------||
|----------------|----------------|----------------|----------------||
|----------------|----------------|----------------|----------------||
|3-3-3-3-3-3-3-3-|3-2-2-2-2-2-2-2-|2-2-2-2-2-2-2-2-|6-6-6-6-6-6-6-6-||
|3-3-3-3-3-3-3-3-|3-2-2-2-2-2-2-2-|2-2-2-2-2-2-2-2-|6-6-6-6-6-6-6-6-||
|1-1-1-1-1-1-1-1-|1-0-0-0-0-0-0-0-|0-0-0-0-0-0-0-0-|4-4-4-4-4-4-4-4-||
 1e+a

guitar 2
|----------------|----------------|----------------|----------------||
|------1---------|------2---------|------2---------|------4---------||
|--2-------------|--1-------------|--1-------------|--1-------------||
|3---------------|2---------------|2---------------|2---------------||
|----------------|----------------|----------------|----------------||
|----------------|----------------|----------------|----------------||
 1e+a

chorus
|----------------|----------------|----------------|----------------||
|----------------|----------------|----------------|----------------||
|-----10---9-4---|----------------|----------------|----------------||
|3/---10---9-4---|2-2-2-2-2-2-2-4-|6-6-6-6-6-7-6-7-|----------------||
|3/----8---7-2---|2-2-2-2-2-2-2-4-|6-6-6-6-6-7-6-7-|----------------||
|1/--------------|0-0-0-0-0-0-0-2-|4-4-4-4-4-5-4-5-|----------------||
 1e+a

bridge
|----------------|----------------|----------------|----------------||
|----------------|----------------|----------------|----------------||
|----------------|----------------|----------------|----------------||
|----3-3-----3-3-|----3-3-----3-3-|2-2-2-2-2-2-2-2-|6-6-6-6-6-7-6-7-||
|----------------|----------------|2-2-2-2-2-2-2-2-|6-6-6-6-6-7-6-7-||
|1-1-----1-1-----|1-1-----1-1-----|0-0-0-0-0-0-0-0-|4-4-4-4-4-5-4-5-||
 1e+a

 climactic part
|----------------|----------------|----------------|----------------||
|----------------|----------------|----------------|----------------||
|----------------|----------------|----------------|----------------||
|3-3-3-3-3-3-3-3-|5-5-5-5-5-5-5-5-|7-----7---9--11-|--9---7---5-----||
|3-3-3-3-3-3-3-3-|5-5-5-5-5-5-5-5-|7-----7---9--11-|--9---7---5-----||
|1-1-1-1-1-1-1-1-|3-3-3-3-3-3-3-3-|5-----5---7---9-|--7---5---3-----||
 1e+a


|----------------|----------------|----------------|----------------||
|----------------|----------------|----------------|----------------||
|----------------|----------------|----------------|----------------||
|3-3-3-3-3-3-3-3-|5-5-5-5-5-5-5-5-|7-----7-----7---|--7-----7-5-----||
|3-3-3-3-3-3-3-3-|5-5-5-5-5-5-5-5-|7-----7-----7---|--7-----7-5-----||
|1-1-1-1-1-1-1-1-|3-3-3-3-3-3-3-3-|5-----5-----5---|--5-----5-3-----||
 1e+a


|----------------|----------------|----------------|----------------||
|----------------|----------------|----------------|----------------||
|----------------|----------------|----------------|----------------||
|3-3-3-3-3-3-3-3-|5-5-5-5-5-x-x-x-|----------------|----------------||
|3-3-3-3-3-3-3-3-|5-5-5-5-5-x-x-x-|----------------|----------------||
|1-1-1-1-1-1-1-1-|3-3-3-3-3-x-x-x-|----------------|----------------||
 1e+a

tremolo part
|----------------|----------------|----------------|----------------||
|----------------|----------------|----------------|----------------||
|10----------9---|7---------------|6---9-----------|----------------||
|----------------|----------------|----------------|----------910910||
|----------------|----------------|----------------|----------------||
|----------------|----------------|----------------|----------------||
 1e+a


|----------------|----------------|----------------|----------------||
|----------------|----------------|----------------|----------------||
|----------------|----------------|----------------|----------------||
|7---------------|---------------/|9---------------|----------------||
|----------------|----------------|----------------|----------------||
|----------------|----------------|----------------|----------------||
 1e+a


end
|----------------|----------------|----------------|----------------||
|----------------|----------------|----------------|----------------||
|-----10---9-4---|----------------|----------------|----------------||
|3/---10---9-4---|----------------|----------------|----------------||
|3/----8---7-2---|----------------|----------------|----------------||
|1/--------------|----------------|----------------|----------------||
 1e+a
Tap to rate this tab
# A B C D E F G H I J K L M N O P Q R S T U V W X Y Z