Guitaretab - guitar tabs
Song name
# A B C D E F G H I J K L M N O P Q R S T U V W X Y Z

Alien Ant Farm - Acid Farm tab

Title:acid farm
By:Alien Ant farm      
Drop D tuning

Intro:
	d||--00-00---00-00---00-00---00-00------------||
	a||--xx-xx---xx-xx---xx-xx---xx-xx------------||
	F||-555-55--444-44--333-33--222-22------------||
	C||-------------------------------------------||
	G||-------------------------------------------||
	D||-------------------------------------------||	

guitar 2 comes in directly after intro
	
        d||----------|| 
        a||----------||
        F||----------||
	C||-02-2-03--||   x2
	G||-02-2-03--||
  	D||-02-2-03--||
 
Chorus:	
        d||-------------------------------------------||
	a||-------------------------------------------||
	F||-------------------------------------------||
  	C||-----3---------3--------3--------3-----5-3-||   x2
	G||--3-5-5-3---3-5-5-3--3-5-5-3--3-5-5-3-5----||
	D||-0-------0----------0--------0-------------||

Verse 1:
	d||-------------------------------------------||
	a||-------------------------------------------||
	F||-------------------------------------------||
	C||-5-5--5-5--5-5--5-5--7-7-7-7--2-2--2-2--5--||   x3
	G||-3-3--3-3--3-3--3-3--5-5-5-5--0-0--0-0--3--||
	D||-------------------------------------------||

return to chorus

        d||----------|| 
        a||----------||
        F||----------||
	C||-02-2-03--||   x2
	G||-02-2-03--||
  	D||-02-2-03--||
 
verse 2:
        d||-------------------------------------------||
	a||-------------------------------------------||
	F||-------------------------------------------||
	C||-5-5--5-5--5-5--5-5--7-7-7-7--2-2--2-2--5--||   x3
	G||-3-3--3-3--3-3--3-3--5-5-5-5--0-0--0-0--3--||
	D||-------------------------------------------||
[ Tab from: http://www.guitaretab.com/a/alien-ant-farm/22362.html ]
Related for Acid Farm tab
Advertisement will be closed in 10 seconds