Song name
# A B C D E F G H I J K L M N O P Q R S T U V W X Y Z

Alien Ant Farm - Smooth Criminal tab

E-5-5--5-5-5-3-5--7-7-5-7-8-8--8-8-7/3-5

Opening Riff (verse also)      *Repeat as needed on all riffs
E|------------------------------------------
B|------------------------------------------
G|------------------------------------------
D|-7-7-7-7--9-9--9-9--10-10--10-10--7---5--7
A|-7-7-7-7--9-9--9-9--10-10--10-10--7---5--7
D|-7-7-7-7--9-9--9-9--10-10--10-10--7---5--7
P.M.........................................

Pre-Chorus Riff/End Chorus Riff

E|-------------------------------------------
B|-------------------------------------------
G|-------------------------------------------
D|-3------5-5-x-3----------------------------
A|-3-x6---5-5-x-3--repeat--------------------
D|-3------5-5-x-3----------------------------
(x# means how many times)

Chorus
E|----------------------------------------------------------------------
B|----------------------------------------------------------------------
G|----------------------------------------------------------------------
D|-7-----5-5---5-5-3-3---3-3-5-3-5-7----7----5-5--5-5-3-3---3-3-2-2-5-7-
A|-7-x6--5-5---5-5-3-3---3-3-5-3-5-7----7-x6-5-5--5-5-3-3---3-3-2-2-5-7-
D|-7-----5-5---5-5-3-3---3-3-5-3-5-7----7----5-5--5-5-3-3---3-3-2-2-5-7-

"You've Been Hit By, You've Been Struck by...."
E|------------------------------------------
B|------------------------------------------
G|------------------------------------------
D|-2-2--------2-----------------------------
A|-2-2--------2-----------------------------
D|-2-2--------2-----------------------------

Solo:
E|--------------------------------|----------------------------------
B|--------------------------------|----------------------------------
G|--5-4---4-----------------------|---5-4---4------------------------
D|------7---7-5-0-5-7-7-7-5-7-7-7-|-7-----7---7-5-0-5-7-7-7-5-7-7-7--
A|--------------------------------|----------------------------------
D|--------------------------------|----------------------------------

E|----------------------------------|-----------------------------------
B|----------------------------------|-----------------------------------
G|----5-4---4-----------------------|----5-4---4------------------------
D|--7-----7---7-5-0-5-7-7-7-5-7-7-7-|--7-----7---7-5-0-5-7-7-7-5-7-7-7--
A|----------------------------------|-----------------------------------
D|----------------------------------|-----------------------------------

E|--------------------------------|----------------------------------
B|--------------------------------|----------------------------------
G|----5-4---4---------------------|----------------------------------
D|--7-----7---7-5-0-5-7-7-7-7-7-7-|----------------------------------
A|------------------------------7-|----------------------------------
D|------------------------------7-|----------------------------------
Tap to rate this tab
# A B C D E F G H I J K L M N O P Q R S T U V W X Y Z